Cifra Club

Aprenda

Dirty Deeds Done Dirt Cheap

AC/DC

Tab de baixo: Principal
INTRO
G-----------------|-----------------|-----------------|-----------------|
D-----------------|-----------------|-----------------|-----------------|
A-----------------|-----------------|-----------------|-----------------|
E-0-0-0-0-0-0-0-0-|-0-0-0-0-0-0-0-0-|-0-0-0-0-0-0-0-0-|-0-0-0-0-0-0-0-0-|x4

VERSE
G-----------------------------------|-----------------------------------|
D-----------------------------------|-----------------------------------|
A-5-7-------------------------------|-5-7-------------------------------|
E-----0-0-0-0-0-0-0-0-0-0-0-0-0-0-0-|-----0-0-0-0-0-0-0-0-0-0-0-0-0-0-0-|

G-----------------------------------|-----------------------------------|
D-----------------------------------|-----------------------------------|
A-5-7-------------------------------|-5-7-------------------------------|
E-----0-0-0-0-0-0-0-0-0-0-0-0-0-0-0-|-----0-0-0-0-0-0-0-0-0-0-0-0-0-0-0-|

G-----------------|-------------|-------------|-------------------|
D-----------------|-------------|-------------|-------------------|
A-5-7-------------|-5-7---------|-5-7---------|---------------3/--|
E-----0-0-0-0-0-0-|-----0-0-0-0-|-----0-0-0-0-|-------------------|

CHORUS
G--------------------|-----------------------|-----------------------|
D--------------------|-----------------------|-----------------------|
A-7-7-7-7------7-5-7-|-3/-1-1-1-1------7-5-7-|-3/-7-7-7-7------7-5-7-|
E--------5-7-5-------|-----------5-7-5-------|-----------5-7-5-------|

BRIDGE
G-----------------------------------------|---------------------------------|
D-----------------------------------------|---------------------------------|
A-----------------------------------------|---------------------------------|
E-0-0-0-0-0-0-0-0-0-0-0-0-0-0-0-0-0-0-0-0-|-0-0-0-0-0-0-0-0-0-0-0-0-0-0-0-0-|
 DIRTY DEEDS AND THEYRE DONE DIRT CHEAP

G-----------|
D-----------|
A-----------|
E-0-0-0-0-0-|

VERSE
CHORUS
BRIDGE

SOLO(FAST PACED)
G---------------------|-------------------|-------------------|--------------|
D---------------------|-------------------|-------------------|--------------|
A-2-2-2-2-2-2-2-2-2-2-|-0-0-0-0-0-0-0-0-0-|-2-2-2-2-2-2-2-2-2-|-0-0-0-0-0-0--|
E---------------------|-------------------|-------------------|--------------|

G-------|-------------------|-------------------|-------------------|-------|
D-------|-------------------|-------------------|-------------------|-------|
A-0-0-0-|-2-2-2-2-2-2-2-2-2-|-0-0-0-0-0-0-0-0-0-|-2-2-2-2-2-2-2-2-2-|-------|
E-------|-------------------|-------------------|-------------------|-0--55-|

G---||-----------------|-------------------|-------------------|-------------|
D---||-----------------|-------------------|-------------------|-------------|
A---||-----------------|-------------------|-------------------|-5-----------|
E-5-||-0-0-0-0-0-0-0-0-|-3-0-0-0-0-0-0-0-0-|-5-0-0-0-0-0-0-0-0-|---0-0-0-0-0-|

G---------||
D---------||
A---------||
E-0-0-0-0-||x2

VERSE
CHORUS

INTERLUDE
G-------------------------------|-------------------------------|
D-------------------------------|-------------------------------|
A-------------------------------|-------------------------------|
E-0-0-0-0-0-0-0-0-0-0-0-0-0-0-0-|-0-0-0-0-0-0-0-0-0-0-0-0-0-0-0-|
DIRTY DEEDS AND...........
G-------------------------------|-------------------------------|
D-------------------------------|-------------------------------|
A-------------------------------|-------------------------------|
E-0-0-0-0-0-0-0-0-0-0-0-0-0-0-0-|-0-0-0-0-0-0-0-0-0-0-0-0-0-0-0-|

G--------------------------------|-------|  |----|
D--------------------------------|-------|  |----|
A--------------------------------|-7-5-7-|  |-9\-|
E-0-0-0-0-0-0-0-0-0-0-0-0-0-0-0--|-------|x2|----|
 ...CYANIDE,TNT......
G-----------------|-------------------|-------------------|------------|
D-----------------|-------------------|-------------------|------------|
A-----------------|-------------------|-------------------|-5/7--7-5-7-|
E-0-0-0-0-0-0-0-0-|-3-0-0-0-0-0-0-0-0-|-5-0-0-0-0-0-0-0-0-|------------|x5




_______________________________________________________
Contribuição: Yuri(yurisj@gmail.com)
Composição de Angus Young / Bon Scott
6.091 exibições

0 comentários

Mostrar mais comentários

Conseguiu tocar?

0 Tocaram 0 Ainda não

Grave um vídeo tocando Dirty Deeds Done Dirt Cheap e mande pra gente!

00:00 / 00:00
outros vídeos desta música
repetir qualidade Automático
Outros vídeos desta música
00:00 / 00:00
Automático
OK