Cifra Club

Aprenda

DT

AC/DC

Cifra: Principal (violão e guitarra)
Tom: D
E |---------------------------------------|
B |-----------------------4---3-----------|
G |-5---5--3---5\------3--3---3----5-2----|
D |-5---5--3---5\---5------------------3--|
A |-3---3--3---3\-------------------------|
E |---------------------------------------|

E |-----------------------------------------------------|
B |-----------------------------------------------------|
G |-5---3--5\-----5---3--5\-----5---3--5\-----5---3--5\-|
D |-5---3--5\-----5---3--5\-----5---3--5\-----5---3--5\-|
A |-3---3--3\-----3---3--3\-----3---3--3\-----3---3--3\-|
E |-----------------------------------------------------|

E |----------------------------------------------------------------------|
B |----------------------------------------------------------------------|
G |----------------------------------------------------------------------|
D |----------------------------------------------------------------------|
A |---1-3----1------------1---------------1-3----1------------1----------|
E |-3----------3-1----1-3------1-3-1----3----------3-1----1-3------1-3-1-|

E |---------------------------------------|
B |---------------------------------------|
G |-5---3--5\-----5---3--5\-----5---3--5\-|
D |-5---3--5\-----5---3--5\-----5---3--5\-|
A |-3---3--3\-----3---3--3\-----3---3--3\-|
E |---------------------------------------|

E |------------------------------------------------------------------------|
B |------------------------------------------------------------------------|
G |------------------------------------------------------------------------|
D |------------------------------------------------------------------------|
A |---1-3----1------------1---------------1-3----1------------1------------|
E |-3----------3-1----1-3------1-3-1----3----------3-1----1-3------1-3-1---|

E |-----------------------------------------13b15--11---------------hb--------
B |-11b13--11b13----11b13----11-------------------------13---18b20-(20)-18b20-
G |-----------------------------10b12-10b12-----------------------------------
D |---------------------------------------------------------------------------
A |---------------------------------------------------------------------------
E |---------------------------------------------------------------------------

--hb---------hb----------------------------------------------------15b18--
-(20)-18b20-(20)-18b20\--13-15b16---13----13------13-------13--13---------
-----------------------------------------------------15b17----------------
--------------------------------------------------------------------------
--------------------------------------------------------------------------
--------------------------------------------------------------------------

---15--13----------15-------15-------15-------15-------15--18-----15--------|
----------16-18b20----18b20----18b20----18b20----18b20----------------16p13-|
----------------------------------------------------------------------------|
----------------------------------------------------------------------------|
----------------------------------------------------------------------------|
----------------------------------------------------------------------------|

E |-----------
B |-----------
G |-5---3--5\-
D |-5---3--5\-
A |-3---3--3\-
E |-----------

E |---------------------------------------|
B |---------------------------------------|
G |-----------------------4---3-----5-2---|
D |-5---5--3---5----------3---3---------3-|
A |-5---5--3---5---3---3--5---3-----------|
E |---------------------------------------|
937 exibições
    • ½ Tom
    • A
    • Bb
    • B
    • C
    • Db
    • D
    • Eb
    • E
    • F
    • F#
    • G
    • Ab
  • Adicionar à lista

    0 comentários

    Mostrar mais comentários

    Conseguiu tocar?

    0 Tocaram 0 Ainda não

    Grave um vídeo tocando DT e mande pra gente!

    00:00 / 00:00
    outros vídeos desta música
    repetir qualidade Automático
    Outros vídeos desta música
    00:00 / 00:00
    Automático

    Cifra Club Pro

    Aproveite o Cifra Club com benefícios exclusivos e sem anúncios
    7 dias grátis
    Cifra Club Pro
    Aproveite o Cifra Club com benefícios exclusivos e sem anúncios
    7 dias grátis
    OK