Cifra Club

Aprenda

For Those About To Rock (We Salute You)

AC/DC

Cifra: Principal (violão e guitarra)
Tom: A
[Intro]

[Parte 1]

[Guitarra 1]

E|-11--11--11--11--11-11-------------|
B|-12--12--12--12--12-12-------------|
G|-11--11--11--11--11-11-------------|
D|-----------------------------------|
A|-----------------------------------|
E|-----------------------------------|

E|-10--10--14-12--12-12-12-----------|
B|-12--12--12-12--12-12-12-----------|
G|-11--11--11-11--11-11-11-----------|
D|-----------------------------------|
A|-----------------------------------|
E|-----------------------------------|

[Guitarra 2]

E|-----------------------------------|
B|-----------------------------------|
G|-4-------0------2--1---------------|
D|-4-----0------0----2---------------|
A|-2-----------------2---------------|
E|-----3------2------0---------------|

E|-----------------------------------|
B|-----------------------------------|
G|-4---0--2-1------------------------|
D|-4---0--0-2------------------------|
A|-2--------2------------------------|
E|-----3--2-0------------------------|

E|-----------------------------------|
B|-----------------------------------|
G|-4-4-----0-----2-1-----------------|
D|-4-4---0-----0---2-----------------|
A|-2-0-------------2-----------------|
E|------3-----2----0-----------------|

E|-----------------------------------|
B|-----------------------------------|
G|-4-4--0--2--1----------------------|
D|-4-4--0--0--2----------------------|
A|-2-0--------2----------------------|
E|------3--2--0----------------------|

[Parte 2]

[Guitarra 1]

E|-----------------------------------|
B|-----------------------------------|
G|-4-4-----0-----2-1--1-0-1-1--------|
D|-4-4---0-----0---2--2-0-2-2--------|
A|-2-0-------------2-----------------|
E|------3-----2----0-----------------|

E|-------------------7-7-------------|
B|-------------------7-7-------------|
G|-4-4--0--2--1----------------------|
D|-4-4--0--0--2--7/9-----------------|
A|-2-0--------2----------------------|
E|------3--2--0----------------------|

E|-----------------------------------|
B|-----------------------------------|
G|-4-4-----0-----2-1--1-0-1-1--------|
D|-4-4---0-----0---2--2-0-2-2--------|
A|-2-0-------------2-----------------|
E|------3-----2----0-----------------|


E|-----------------------------------|
B|-----------------------------------|
G|-4-4--0--2--1----------------------|
D|-4-4--0--0--2----------------------|
A|-2-0--------2----------------------|
E|------3--2--0----------------------|

[Guitarra 2]

E|-----------------------------------|
B|-----------------------------------|
G|-4-4-----0-----2-1-----------------|
D|-4-4---0-----0---2-----------------|
A|-2-0-------------2-----------------|
E|------3-----2----0-----------------|

E|-----------------------------------|
B|-----------------------------------|
G|-4-4--0--2--1----------------------|
D|-4-4--0--0--2----------------------|
A|-2-0--------2----------------------|
E|------3--2--0----------------------|

E|-----------------------------------|
B|-----------------------------------|
G|-4-4-----0-----2-1-----------------|
D|-4-4---0-----0---2-----------------|
A|-2-0-------------2-----------------|
E|------3-----2----0-----------------|


E|-----------------------------------|
B|-----------------------------------|
G|-4-4-----0-----2-1-----------------|
D|-4-4---0-----0---2-----------------|
A|-2-0-------------2-----------------|
E|------3-----2----0-----------------|

[Verso]

[Guitarra 1 e 2]

E|---------------------3--------------|
B|------3-3-3-2--------3--------------|
G|-4/---2-2-2-2--2--1--0--1-----------|
D|-4/---4-4-4-2-----2--0--2-----------|
A|-2/---------------2--0--2-----------|
E|------------------0--3--0-----------|

[Refrão]

[Guitarra 1]


E|-----------------------------------|
B|-----------------------------------|
G|-4-4--0--2--1--1-0-1-1-------------|
D|-4-4--0--0--2--2-0-2-2-------------|
A|-2-0--------2----------------------|
E|------3--2--0----------------------|

E|-----------------------------------|
B|-----------------------------------|
G|-4-4--0--2--1----------------------|
D|-4-4--0--0--2----------------------|
A|-2-0--------2----------------------|
E|------3--2--0----------------------|

[Guitarra 2]

E|-----------------------------------|
B|-----------------------------------|
G|-4-4--0--2--1----------------------|
D|-4-4--0--0--2----------------------|
A|-2-0--------2----------------------|
E|------3--2--0----------------------|

E|-----------------------------------|
B|-----------------------------------|
G|-4-4--0--2--1----------------------|
D|-4-4--0--0--2----------------------|
A|-2-0--------2----------------------|
E|------3--2--0----------------------|

[Verso]

[Guitarra 1 e 2]

E|---------------------3--------------|
B|------3-3-3-2--------3--------------|
G|-4/---2-2-2-2--2--1--0--1-----------|
D|-4/---4-4-4-2-----2--0--2-----------|
A|-2/---------------2--0--2-----------|
E|------------------0--3--0-----------|

[Refrão]

[Guitarra 1]


E|-----------------------------------|
B|-----------------------------------|
G|-4-4--0--2--1--1-0-1-1-------------|
D|-4-4--0--0--2--2-0-2-2-------------|
A|-2-0--------2----------------------|
E|------3--2--0----------------------|

E|-------------------7-7-------------|
B|-------------------7-7-------------|
G|-4-4--0--2--1----------------------|
D|-4-4--0--0--2--7/9-----------------|
A|-2-0--------2----------------------|
E|------3--2--0----------------------|

[Guitarra 2]

E|-----------------------------------|
B|-----------------------------------|
G|-4-4--0--2--1----------------------|
D|-4-4--0--0--2----------------------|
A|-2-0--------2----------------------|
E|------3--2--0----------------------|

E|-----------------------------------|
B|-----------------------------------|
G|-4-4--0--2--1----------------------|
D|-4-4--0--0--2----------------------|
A|-2-0--------2----------------------|
E|------3--2--0----------------------|

[Solo]


E|-----------------------------------|
B|-10b12-12--12--12--12--12--12------|
G|-----------------------------------|
D|-----------------------------------|
A|-----------------------------------|
E|-----------------------------------|

E|-----------------------------------|
B|-12-12-12-12-12-12-12-12-12-12-----|
G|-----------------------------------|
D|-----------------------------------|
A|-----------------------------------|
E|-----------------------------------|

E|-----------5-----------------------|
B|-8b10-8b10---8-5---5---------------|
G|-----------------8---8-7-5---------|
D|---------------------------7--5-x-7|
A|-----------------------------------|
E|-----------------------------------|

E|------------------5-----------5----|
B|----------------5---8-5-----5---8-5|
G|-7b9-7-5-7-7b9----------7b9--------|
D|-----------------------------------|
A|-----------------------------------|
E|-----------------------------------|

E|------5-----------5----------------|
B|--------8-5-----5---8-5----7b8-7---|
G|-7b9--------7b9---------7--7b8-7---|
D|-----------------------------------|
A|-----------------------------------|
E|-----------------------------------|

E|-10-8b9-8--------------------------|
B|----------10--10-12b13--12-10------|
G|-----------------------------------|
D|-----------------------------------|
A|-----------------------------------|
E|-----------------------------------|

E|----------------------12-12b14-----|
B|-12b13-12b13-12-12b14----12b14-----|
G|-----------------------------------|
D|-----------------------------------|
A|-----------------------------------|
E|-----------------------------------|

E|-----------------------------------|
B|-13b15-13b17-13-13b15-13-10-13b15--|
G|-----------------------------------|
D|-----------------------------------|
A|-----------------------------------|
E|-----------------------------------|

E|-----------------------------------|
B|-13b15-13b15-13b15-13-15-13-15~----|
G|-----------------------------------|
D|-----------------------------------|
A|-----------------------------------|
E|-----------------------------------|

E|-----------------------------------|
B|-10-12b13-12-10----10-10-------10--|
G|----------------11-------12b14-----|
D|-----------------------------------|
A|-----------------------------------|
E|-----------------------------------|

E|-12b13-12--------------------------|
B|-12b13----8-8----------5-----------|
G|--------------9-7-5-7----7-7-7-----|
D|-----------------------------------|
A|-----------------------------------|
E|-----------------------------------|

E|-----------------------------------|
B|-20b22-20b22-20b22-----------------|
G|-----------------------------------|
D|-----------------------------------|
A|-----------------------------------|
E|-----------------------------------|

[Verso]

[Guitarra 1 e 2]

E|---------------------3-------------|
B|------3-3-3-2--------3-------------|
G|-4/---2-2-2-2--2--1--0--1----------|
D|-4/---4-4-4-2-----2--0--2----------|
A|-2/---------------2--0--2----------|
E|------------------0--3--0----------|

[Refrão]

E|-----------------------------------|
B|-----------------------------------|
G|-4/--0-0-2-1-----------------------|
D|-4/--0-0-0-2-----------------------|
A|-2/--------2-----------------------|
E|-----3-3-2-0-----------------------|

E|----3-3----------------------------|
B|----3-3----------------------------|
G|-4--0-0--2-1-----------------------|
D|-4--0-0--0-2-----------------------|
A|-2---------2-----------------------|
E|----3-3--2-0-----------------------|

E|----3-3----------------------------|
B|----3-3----------------------------|
G|----0-0--2-1-----------------------|
D|----0-0--0-2-----------------------|
A|-----------2-----------------------|
E|----3-3--2-0-----------------------|

[Final]

E|-----------------------------------|
B|-----------------------------------|
G|-4-4--0--2--1----------------------|
D|-4-4--0--0--2----------------------|
A|-2-0--------2----------------------|
E|------3--2--0----------------------|
Composição de Angus Young / Brian Johnson / Malcolm Young
Colaboração e revisão:
  • Marcos Paulo
  • Taino Vieira
35.730 exibições
    • ½ Tom
    • A
    • Bb
    • B
    • C
    • Db
    • D
    • Eb
    • E
    • F
    • F#
    • G
    • Ab
  • Adicionar à lista

    0 comentários

    Mostrar mais comentários

    Conseguiu tocar?

    7 Tocaram 0 Ainda não

    Grave um vídeo tocando For Those About To Rock (We Salute You) e mande pra gente!

    00:00 / 00:00
    outros vídeos desta música
    repetir qualidade Automático
    Outros vídeos desta música
    00:00 / 00:00
    Automático

    Cifra Club Pro

    Aproveite o Cifra Club com benefícios exclusivos e sem anúncios
    7 dias grátis
    Cifra Club Pro
    Aproveite o Cifra Club com benefícios exclusivos e sem anúncios
    7 dias grátis
    OK