Cifra Club

Aprenda

Furor Tab

AC/DC

Cifra: Principal (violão e guitarra)
Tom: C
e---------------------------------------------------|
b--------3-3--------------------3-3-----------------|
g--------2-2--------------------2-2-----------------|
d--3p0-0-0-0--3p0--0------3p0-0-0-0--3p0--0---------| 
a--------------------0-3--------------------0-3-----|
e---------------------------------------------------|
then...
_____________________________________________________
Gtr 1 ( Angus)
e---------------------------------------------------|
b--------3-3--------------------3-3-----------------|
g--------2-2--------------------2-2-----------------|
d--3p0-0-0-0--3p0--0------3p0-0-0-0--3p0--0---------| 
a--------------------0-3--------------------0-3-----|
e---------------------------------------------------|When Angus is starting
Gtr 2 (Malcolm)                                     that riff, Mal hits
e-------|                                                  
Colaboração e revisão:
  • Leonardo Lamesa
2.686 exibições
    • ½ Tom
    • A
    • Bb
    • B
    • C
    • Db
    • D
    • Eb
    • E
    • F
    • F#
    • G
    • Ab
  • Adicionar à lista

    0 comentários

    Mostrar mais comentários

    Conseguiu tocar?

    0 Tocaram 0 Ainda não

    Grave um vídeo tocando Furor Tab e mande pra gente!

    00:00 / 00:00
    outros vídeos desta música
    repetir qualidade Automático
    Outros vídeos desta música
    00:00 / 00:00
    Automático
    OK