Cifra Club

Aprenda

It's a Long Way To The Top (If You Wanna Rock N' Roll)

AC/DC

Tab de baixo: Principal
(verse) (the bass just hums along, don't play along to the guitar)
g|---------------------------------|
d|---------------------------------|
a|---------------------------------|
e|-5-5-5-5-5-5-5-5-5-5-5-5-5-0-2-3-|
   1 & 2 & 3 & 4 & 5 & 6 & 7 & 8 &

(bridge) ('getting robbed...')
g|-------------------------|
d|-------------------------|
a|-------------------------|
e|-5-5-5-5-5-0-2-3---------|
   1 & 2 & 3 & 4 &

(chorus)
g|------------------|
d|------------------|
a|-----2-3h-5h------|
e|-5-5---------3--2-|
   1 & 2 & 3 & 4 &

g|-----------------|
d|-----------------|
a|-----------------|
e|-5-5-5-5-5-5-5-5-|

During the solo when the guitar and bagpipes alternate,
Play the following under the bagpipes. play the verse
Under the guitars
g|-------------------------|
d|-------------------------|
a|-0-2-3-5-----------------|
e|---------0-2-3-5---------|
   1 2 3 4 5 6 7 8

Outro improv (this seems to be played right towards the end)
g|-------------------------|
d|-5-3-2-------------------|
a|--------5-3-2------------|
e|---------------0-2-3-----|

| /  slide up
| \  slide down
| h  hammer-on
| p  pull-off
| ~  vibrato
| +  harmonic
| x  mute note
Composição de Bon Scott / Malcolm Young
3.552 exibições

0 comentários

Mostrar mais comentários

Conseguiu tocar?

1 Tocaram 0 Ainda não

Grave um vídeo tocando It's a Long Way To The Top (If You Wanna Rock N' Roll) e mande pra gente!

00:00 / 00:00
outros vídeos desta música
repetir qualidade Automático
Outros vídeos desta música
00:00 / 00:00
Automático

Cifra Club Pro

Aproveite o Cifra Club com benefícios exclusivos e sem anúncios
7 dias grátis
Cifra Club Pro
Aproveite o Cifra Club com benefícios exclusivos e sem anúncios
7 dias grátis
OK