Cifra Club

Aprenda

Let Me Put My Love Into You

AC/DC

Cifra: Principal (violão e guitarra)
Tom: E
  Intro
E|---------------------|---------------------|---------------------|
B|---------------------|---------------------|---------------------|
G|---------------------|---------------------|---------------------|
D|------------5--4--5--|------------5--4--5--|------------5--4--5--|
A|------------7--5--7--|------------7--5--7--|------------7--5--7--|
E|---------------------|---------------------|---------------------|

|--------------------|---------------------|---------------------|
|--------------------|---------------------|---------------------|
|-----------------2--|---------------------|---------------------|
|--------4--------2--|------------5--4--5--|------------5--4--5--|
|--------5--------0--|------------7--5--7--|------------7--5--7--|
|--------------------|---------------------|---------------------|

|---------------------|--------------------|---------------------|
|---------------------|--------------------|---------------------|
|---------------------|-----------------2--|---------------------|
|------------5--4--5--|--------4--------2--|------------5--4--5--|
|------------7--5--7--|--------5--------0--|------------7--5--7--|
|---------------------|--------------------|---------------------|

|----------------------|----------------------|----------------------|
|----------------------|----------------------|----------------------|
|----------------------|----------------------|-------------------2--|
|-------------5--4--5--|-------------5--4--5--|---------4---------2--|
|-------------7--5--7--|-------------7--5--7--|---------5---------0--|
|------0---------------|------0---------------|------0---------0-----|

|---------------------|----------------------|----------------------|
|------------8--7--8~-|-------------8--7--8~-|-------------8--7--8~-|
|------------9--7--9~-|-------------9--7--9~-|-------------9--7--9~-|
|---------------------|----------------------|----------------------|
|---------------------|----------------------|----------------------|
|---------------------|------0---------------|------0---------------|

|----------------------|
|---------7---------2--|
|---------7---------2--|
|-------------------2--|
|-------------------0--|
|------0---------0-----|

before Chorus

|------------------------|----------------------------|
|------------------3-----|----------------------3-----|
|------------0-2/4---4-0-|----------------0-2/4---4-0-|
|------------------------|----------------------------|
|------------------------|--2--------2----------------|
|------------------------|--0--0--0--0----------------|

|----------------------------|----------------------------|
|----------------------3-----|----------------------3-----|
|----------------0-2/4---4-0-|----------------0-2/4---4-0-|
|--2--------2----------------|----------------------------|
|--0--0--0--0----------------|--2--------2----------------|
|----------------------------|--0--0--0--0----------------|

|-------------------------|
|-------------------------|
|--2--2-----2----2--2--2--|
|--2--2-----2----2--2--2--|
|--0--0-----0----0--0--0--|
|--------3----------------|

Chorus

|-----------------------|----------------------|
|--3--------------------|----------------------|
|--2---------2----------|----------------------|
|--0------2--2-------2--|------2----2----2-----|
|--0------0--0----2--2--|------2----2----2-----|
|-----------------0--0--|------0----0----0--0--|

|--2--------------------|----------------------|
|--3--------------------|----------------------|
|--2---------2----------|----------------------|
|--0------2--2-------2--|------2----2----2-----|
|--0------0--0----2--2--|------2----2----2-----|
|-----------------0--0--|------0----0----0--0--|

|--2--------------------|-----------------------|
|--3--------------------|-----------------------|
|--2------2--2----------|-----------------------|
|--0------2--2----------|------2----2--2--2--2--|
|--0------0--0----2--2--|------2----2--2--2--2--|
|-----------------0--0--|------0----0--0--0--0--|

|--2-----------------|----------------------|
|--3--------2--------|-------------8--7--8--|
|--2--------2--------|--0----------9--7--9--|
|--0--------2--------|--2-------------------|
|--0--------0--------|--2-------------------|
|--------------------|--0-------------------|



Guitarra Solo: (2:38)
|-----------------------------------------------------------------------|
|-----------------------------------------------------15------15~-------|
|-----------------------------------------------------14b16=--14pb15r~--|
|-14--14--14--14--14--14--14--14--14--14--14--14--14--------------------|
|-----------------------------------------------------------------------|
|-----------------------------------------------------------------------|

|----12----------------------------------------------------------------|
|-12----15-12----------------------------------------------------------|
|-------------14b16-14~~--12------12-------------------9~~--7-7b7.5----|
|------------------------------14----14~--12\-------/9-----------------|
|----------------------------------------------------------------------|
|----------------------------------------------------------------------|

|--------------------------------------------------------------|
|--------------------------------------------------------------|
|-6b==7~~----7---9~--------------------14b16=--12-14-----------|
|--------------------7-9--7s5-7~\---14---------------14~\------|
|------------------------------------x-------------------------|
|--------------------------------------------------------------|

|--------------------------------------------------------------|
|----13b=15------12b=14-------15-----15--15----15-15-----------|
|-12----------12--------------14b=16-----14b16----14b16~-------|
|--------------------------14----------------------------------|
|--------------------------------------------------------------|
|--------------------------------------------------------------|

|---------------------------------------------------------------------------|
|-------15-15-------15-15-------15-15-------15-15-------15-15--------15-15--|
|-14b16-------14b16-------14b16-------14b16-------14b16-------14pb16--------|
|---------------------------------------------------------------------------|
|---------------------------------------------------------------------------|
|---------------------------------------------------------------------------|

|----------------------------------------------|
|--------15-15-------15-15---------------------|
|-14pb16-------14b16-------14b16rp12-14--------|
|----------------------------------------14~---|
|----------------------------------------------|
|----------------------------------------------|

|--------------------------------------------------------------------|
|-------15---------------------------------------------15-15---------|
|-14b16----14pb16rp12-14----------12b12.5--------14b16----14b16--14~-|
|------------------------14-14-12----------14-12---------------------|
|--------------------------------------------------------------------|
|--------------------------------------------------------------------|

|-----------------------------------------------------|
|----17-----17~-----17~------17~------17~-------17~---|
|-16----16-------16----14s16----14s16-----14s16-------|
|-----------------------------------------------------|
|-----------------------------------------------------|
|-----------------------------------------------------|

|-----------------------19----------------------------------------|
|----------17-----19b21----19b21~~-----12-15b17~--12--------------|
|-16-16h18----16-------------------------------------12-14b16~----|
|-----------------------------------------------------------------|
|-----------------------------------------------------------------|
|-----------------------------------------------------------------|

|-----------------------------------------------------------|
|-----------------------------------------------------------|
|-12b14=---11~---9~---[7]~--6~---4~---2~---0---2b==2.5------|
|-----------------------------------------------------------|
|-----------------------------------------------------------|
|-----------------------------------------------------------|

[Chorus]

(3:22)
|-----------------------------------------------------|
|-----------------------------------------------------|
|-9~--7-9~\---------7h9-9-9-7h9-9-9-7h9-9-9--7-7h9~\--|
|-----------------------------------------------------|
|-----------------------------------------------------|
|-----------------------------------------------------|

(3:30)
|------------------------------------------------|
|-15-------15----15----15----15----15----15------|
|-14b16=---14b16-14b16-14b16-14b16-14b16-14b16~~-|
|------------------------------------------------|
|------------------------------------------------|
|------------------------------------------------|

(3:35)
|----------------------------------|
|-15b17====17=17=17=17=17-15b17~---|
|----------------------------------|
|----------------------------------|
|----------------------------------|
|----------------------------------|

(3:40)
|-15b17=-12h15p12----12------------------------------|
|-----------------15----15-12------------------------|
|-----------------------------14b16rp12----14b16=~---|
|----------------------------------------------------|
|----------------------------------------------------|
|----------------------------------------------------|

|--------------------------x-14b15==r----|
|--17--17~\---15--17-17~-----------------|
|-------------14-------------------------|
|----------------------------------------|
|----------------------------------------|
|----------------------------------------|

(3:48)
|-15b17==--15-12-----12\------|
|--------------x--15--x-------|
|--------------x--------------|
|-----------------------------|
|-----------------------------|
|-----------------------------|

(3:50)
|----------------------------|
|-15b17~------15b17==17~-----|
|----------------------------|
|----------------------------|
|----------------------------|
|----------------------------|

(3:56)
|---------------------------------------------------------------------|
|-----------------------------------------------------------------2---|
|-9--7--9------9--7--9------9--7---9-------7--------2-------------2---|
|-9--7--9------9--7--9------9--7---9-------7--------2-------------2---|
|-7--5--7------7--5--7------7--5---7-------5--------0-------------0---|
|----------0------------0---------------------------------------------|

|-----------------------------------------------------|
|-5--5--5-5p0-5p0-5p0-5p0-5p0-5p0-5p0-5p0-5p0--5~~----|
|-----------------------------------------------------|
|-----------------------------------------------------|
|-----------------------------------------------------|
|-----------------------------------------------------|
Composição de Angus Young / Brian Johnson / Malcolm Young
Colaboração e revisão:
  • Sttênio RHCP
22.333 exibições
    • ½ Tom
    • A
    • Bb
    • B
    • C
    • Db
    • D
    • Eb
    • E
    • F
    • F#
    • G
    • Ab
  • Adicionar à lista

    0 comentários

    Mostrar mais comentários

    Conseguiu tocar?

    14 Tocaram 0 Ainda não

    Grave um vídeo tocando Let Me Put My Love Into You e mande pra gente!

    00:00 / 00:00
    outros vídeos desta música
    repetir qualidade Automático
    Outros vídeos desta música
    00:00 / 00:00
    Automático
    OK