Cifra Club

Aprenda

Lets Get It Up

AC/DC

Tab de baixo: Principal
(intro)
                     D                                   D     A
G|-----------------|-----------------|-----------------|-----------------|
D|-----------------|-----------------|-----------------|-----------------|
A|-----------------|-5-5-------------|-----------------|-5-5-------------|
E|-----------------|-----------------|-----------------|-------5---------|

                     E     B E   C#    D                 E     B E   C#
G|-----------------|-----------------|-----------------|-----------------|
D|-----------------|---------2-------|-----------------|---------2-------|
A|-----------------|-------2-----4---|-5-5-----4---2-0-|-------2-----4---|
E|-----------------|-0-2/4-----------|-----------------|-0-2/4-----------|

   D      A          E     B E   C#    D                 E     B E   C#
G|-----------------|-----------------|-----------------|-----------------|
D|-----------------|---------2-------|-----------------|---------2-------|
A|-5-5-------------|-------2-----4---|-5-5-5-5-4---7-4-|-------2-----4---|
E|-------5-5-5-5-5-|-0-2/4-----------|-----------------|-0-2/4-----------|

    D     A   
G|-----------------|
D|-----------------|
A|-5-5-------------|
E|-------5---------|

(verse 1)
  
   A B   E           A B               A B   E           A B          
G|-----------------|-----------------|-----------------|-----------------|
D|-----------------|-----------------|-----------------|-----------------|
A|-------7---------|-----------------|-------7---------|-----------------|
E|-5-7-------------|-5-7---7---------|-5-7-------------|-5-7---7---------|

   A B   E           A B               A B   E           A B   
G|-----------------|-----------------|-----------------|-----------------|
D|-----------------|-----------------|-----------------|-----------------|
A|-------7---------|-----------------|-------7---------|-----------------|
E|-5-7-------------|-5-7---7---------|-5-7-------------|-5-7---7---------|

(pre-chorus/chorus 1) 

    B          E         A         B               E         A         B
G|-----------------|-----------------|-----------------|-----------------|
D|-----------------|-----------------|-----------------|-----------------|
A|-----------------|-----------------|-----------------|-----------------|
E|-7-7-7-7-7-7-0-0-|-0-4-5---5-5-5-7-|-7-7-7-7-7-7-0-0-|-0-4-5---5-5-3-7-|

    B          E         A         B                A                  
G|-----------------|-----------------|-----------------|-----------------|
D|-----------------|-----------------|-----------------|-----------------|
A|-----------------|-----------------|-----------------|-----------------|
E|-7-7-7-7-7-7-0-0-|-0-4-5---5-5-5-7-|-7-7-7-7-7-7-5---|-5-5-5-5-5-5-5-5-|

   A                 E     B E   C#    D                 E     B E   C#
G|-----------------|-----------------|-----------------|-----------------|
D|-----------------|---------2-------|-----------------|---------2-------|
A|-----------------|-------2-----4---|-5-5-----5---4-2-|-------2-----4---|
E|-5-5-5-5-5-5-5-5-|-0-2/4-----------|-----------------|-0-2/4-----------|

   D      A          E     B E   C#    D                 E     B E   C#
G|-----------------|-----------------|-----------------|-----------------|
D|-----------------|---------2-------|-----------------|---------2-------|
A|-5-5-------------|-------2-----4---|-5-5-----5---4-2-|-------2-----4---|
E|-------5-5-5-5-5-|-0-2/4-----------|-----------------|-0-2/4-----------|

   D     A
G|-----------------|
D|-----------------|
A|-5-5-------------|
E|-------5---------|

(verse 2)
  
   A B   E           A B               A B   E           A B          
G|-----------------|-----------------|-----------------|-----------------|
D|-----------------|-----------------|-----------------|-----------------|
A|-------7---------|-----------------|-------7---------|-----------------|
E|-5-7-------------|-5-7---7---------|-5-7-------------|-5-7---7---------|

   A B   E           A B               A B   E           A B   
G|-----------------|-----------------|-----------------|-----------------|
D|-----------------|-----------------|-----------------|-----------------|
A|-------7---------|-----------------|-------7---------|-----------------|
E|-5-7-------------|-5-7---7---------|-5-7-------------|-5-7---7---------|

(pre-chorus/chorus 2) 

    B          E         A         B               E         A         B
G|-----------------|-----------------|-----------------|-----------------|
D|-----------------|-----------------|-----------------|-----------------|
A|-----------------|-----------------|-----------------|-----------------|
E|-7-7-7-7-7-7-0-0-|-0-0-5---5-5-5-7-|-7-7-7-7-7-7-0-0-|-0-4-5---5-5-5-7-|

    B          E         A         B               A                  
G|-----------------|-----------------|-----------------|-----------------|
D|-----------------|-----------------|-----------4-7---|-7-7-7-7-7-7-7-7-|
A|-----------------|-----------------|---------7-------|-----------------|
E|-7-7-7-7-7-7-0-0-|-0-4-5---5-5-5-7-|-7-7-7-7---------|-----------------|

   A                 E     B E   C#    D                 E     B E   C#
G|-----------------|-----------------|-----------------|-----------------|
D|-7---7-5-4-------|---------2-------|-----------------|---------2-------|
A|-----------5-4-2-|-------2-----4---|-5-5-----5---4-2-|-------2-----4---|
E|-----------------|-0-2/4-----------|-----------------|-0-2/4-----------|

   D      A          E     B E   C#    D                 E     B E   C#
G|-----------------|-----------------|-----------------|-----------------|
D|-----------------|---------2-------|--------/7---4---|---------2-------|
A|-5-5-------------|-------2-----4---|-5-5-----------7-|-------2-----4---|
E|-------5-5-5-5-5-|-0-2/4-----------|-----------------|-0-2/4-----------|

   D     A
G|-----------------|
D|-----------------|
A|-5-5-------------|
E|-------5---------|

(guitar solo)
 
   E                   D        A      E                    D         A
G|-----------------|-----------------|-----------------|-----------------|
D|-----------------|-----------------|-----------------|-----------------|
A|-----------------|---5-5-5-5-------|-----------------|---5-5-5-5-------|
E|-0---------------|-------------5---|-0---------------|-------------5---|

   A B   E           A B               A B   E             D         A
G|-----------------|-----------------|-----------------|-----------------|
D|-----------------|-----------------|-----------------|-----------------|
A|-----------------|-----------------|-----------------|---5-5-5-5-------|
E|-5-7---0---0-0-0-|-5-7---7---7-7-7-|-5-7---0---0-0-0-|-0-----------5---|

   A B   E           A B               A B   E             D         A
G|-----------------|-----------------|-----------------|-----------------|
D|-----------------|-----------------|-----------7-----|-----------------|
A|-----------------|-----------------|-------------4-7-|---5-5-5-5-------|
E|-5-7---0---0-0-0-|-5-7---7---7-7-7-|-5-7---0---------|-------------5---|

   A B   E           A B               A B   E             D         A
G|-----------------|-----------------|-----------------|-----------------|
D|-----------------|-----------------|-----------------|-----------------|
A|-----------3-2---|-----------4-4---|-----------------|---5-5-5-5-------|
E|-5-7---0---------|-5-7---7---------|-5-7---0---0-0-0-|-0-----------5---|

   A B   E           A B               A B   E             D         A
G|-----------------|-----------------|-----------------|-----------------|
D|-----------------|-----------------|-----------------|-----------------|
A|-----------------|-----------------|-----------------|---5-5-5-5-------|
E|-5-7---0---0-0-0-|-5-7---7---7-7-7-|-5-7---0---0-0-0-|-0-----------5---|

(chorus 3)

   E     B E   C#    D                 E     B E   C#    D     A
G|-----------------|-----------------|-----------------|-----------------|
D|---------2-------|-----------------|---------2-------|-----------------|
A|-------2-----4---|-5-5-----4---2-0-|-------2-----4---|-5-5-------------|
E|-0-2/4-----------|-----------------|-0-2/4-----------|-------5-5-5-5-5-|

   E     B E   C#    D                 E     B E   C#    D   A
G|-----------------|-----------------|-----------------|-----------------|
D|---------2-------|-----------------|---------2-------|--------/7-7-7-7-|
A|-------2-----4---|-5-5-----4---2-0-|-------2-----4---|-5-5-------------|
E|-0-2/4-----------|-----------------|-0-2/4-----------|-----5-5---------|

   E     B E   C#    D                 E     B E   C#    D     A
G|-----------------|-----------------|-----------------|-----------------|
D|---------2-------|-----------------|---------2-------|-----------------|
A|-------2-----4---|-5-5--4--5---4-2-|-------2-----4---|-5-5-------------|
E|-0-2/4-----------|-----------------|-0-2/4-----------|-------5-5-5-3p2-|

   E     B E   C#    D                 E     B E   C#    D     A
G|-----------------|-----------------|-----------------|-----------------|
D|---------2-------|-----------------|---------2-------|-----------------|
A|-------2-----4---|-5-5-----4---2-0-|-------2-----4---|-5-5-------------|
E|-0-2/4-----------|-----------------|-0-2/4-----------|-------5-5-5-5-5-|

(outro)

   A                                   E     B D  C#     D
G|-----------------|-----------------|-----------------|-----------------|
D|/7-7-7-7-7-7-7-7-|-7-7-7-7-7-7-7-7-|---------2-------|-----------------|
A|-----------------|-----------------|-------2-----4---|-5-5-------------|
E|-----------------|-----------------|-0-2/4-----------|-----------------|
Composição de Angus Young / Brian Johnson
688 exibições

0 comentários

Mostrar mais comentários

Conseguiu tocar?

1 Tocaram 0 Ainda não

Grave um vídeo tocando Lets Get It Up e mande pra gente!

00:00 / 00:00
outros vídeos desta música
repetir qualidade Automático
Outros vídeos desta música
00:00 / 00:00
Automático

Cifra Club Pro

Aproveite o Cifra Club com benefícios exclusivos e sem anúncios
7 dias grátis
Cifra Club Pro
Aproveite o Cifra Club com benefícios exclusivos e sem anúncios
7 dias grátis
OK