Cifra Club

Aprenda

Money Talks

AC/DC

Cifra: Versão 2 (violão e guitarra)
tom: C
     Intro..
----------------|---------------|----------------|-----------------|
----------------|---------------|----------------|-----------------|
-16-14-16-14-17-|16-14-12-14-12-|-16-14-16-14-17-|16-14-12-12-14-12|
-12-12-12-12-12-|12-12-12-12-12-|-12-12-12-12-12-|12-12-12-12-12-12|
----------------|---------------|----------------|-----------------|
----------------|---------------|----------------|-----------------|

                                                  
----------------|---------------|----------------|-----------------|
----------------|---------------|----------------|-----------------|
-16-14-16-14-17-|16-14-12-14-12-|-16-14-16-14-17-|-----------------|
-12-12-12-12-12-|12-12-12-12-12-|-12-12-12-12-12-|-----------------|
----------------|---------------|----------------|-----------------|
----------------|---------------|----------------|-----------------|

    verse    12x               4x               4x 
----------------|----------------|----------------|----------------|
----------------|----------------|----------------|Repeat-intro----|
----------------|-7-7------------|-5-5------------|----------------|
-5-5------------|-7-7------------|-5-5------------|----------------|
-5-5------------|-5-5-5-5-9-5----|-3-3-3-3-7-3----|----------------|
-3-3-3-3-7-3----|----------------|----------------|----------------|

    Pre Solo        2x                                      3x
----------------|----------------|----------------|----------------|
----------------|Then-Play-------|Then-intro------|----------------|
-7--7--7--7--7--|verse-----------|-----6x---------|----------------|
-7--7--7--7--7--|----------------|----------------|-5-5------------|
-5--5--5--5--5--|----------------|----------------|-5-5------------|
----------------|----------------|----------------|-3-3-3-3-7-3----|

    hold
----------------|----------------|----------------|----------------|
----------------|----------------|----------------|----------------|
----------------|----------------|----------------|----------------|
-5--------------|-5--------------|----------------|----------------|
-5--------------|-5--------------|----------------|----------------|
-3--------------|-3--------------|----------------|----------------|

solo:
-6b-3-3-3-3-3--6b-3-3-3-3-3-----3-3------3-3--6b-6b-6b-6b-6b--3-3-3| 
-5b-3-3-3-3-3--5b-3-3-3-3-3--/8-3-3--/8--3-3--5b-5b-5b-5b-5b--3-3-3| 
-------------------------------------------------------------------|      
-------------------------------------------------------------------|
-------------------------------------------------------------------|
-------------------------------------------------------------------|

-------------------------------------------------------------------|
--15-15-15-15-15-15-15--15---------------------15------------------|
-(15)14(15)14(15)14(15)(15)^14^12-----14(15)---16--12-12--12-12----|
--------------------------------12^14------------------/14-----/17-|
-------------------------------------------------------------------|
-------------------------------------------------------------------|

-------------------------------------------------------------------|
---------------15--15--15----------------------------3-----3--5-3-/|
12-12-12-/--12-14b-14b-14b--12v----------------------3-----3--5-3-/|
--------------------------------10h12h10/---5-5--5-5--3-5v---------|
-----------------------------------------5/7---/7------------------|
-------------------------------------------------------------------|

---------------------------------------18b----18b-18b-18b----------|
--15-----x-15-----x-15-----x-15------x-----------------------------|
--14(15)-x-14b----x-14b----x-14b-----x-----------------------------|
-------------------------------------------------------------------|
-------------------------------------------------------------------|
-------------------------------------------------------------------|

--7-5-7-5--8-7-5-3-5-3--7-5-7-5--8-7-5-3-3-5-3---------------------|
-------------------------------------------------------------------|
-------------------------------------------------------------------|x2
-------------------------------------------------------------------|
-------------------------------------------------------------------|
-------------------------------------------------------------------|
    
repeat intro x4 then..

----------------|----------------|----------------|----------------|
----------------|----------------|----------------|----------------|
----------------|----------------|----------------|----------------|
-5-5------------|-5-5------------|-5-5------------|-5--------5-----|
-5-5-3-3-3-3-7-3|-5-5-3-3-3-3-7-3|-5-5-3-3-3-3-7-3|-5--------5-----|

esta é a maneira mais correta de se tocar essa musica...abraços
Composição de Angus Young / Brian Johnson / Malcolm Young / Patty Griffin / Sergio George / Steve Rothery
20.727 exibições
    • ½ Tom
    • A
    • Bb
    • B
    • C
    • Db
    • D
    • Eb
    • E
    • F
    • F#
    • G
    • Ab
  • Adicionar à lista

    0 comentários

    Ver todos os comentários

    Conseguiu tocar?

    0 Tocaram 0 Ainda não

    Grave um vídeo tocando Money Talks e nos envie!

    00:00 / 00:00
    Outros vídeos desta música
    Repetir Qualidade Automático
    Outros vídeos desta música
    00:00 / 00:00
    Automático

    Cifra Club Pro

    Aproveite o Cifra Club com benefícios exclusivos e sem anúncios
    Cifra Club Pro
    Aproveite o Cifra Club com benefícios exclusivos e sem anúncios
    OK