Cifra Club

Aprenda

Nick Of Time

AC/DC

Cifra: Principal (violão e guitarra)
Tom: D
faint)      Guitar 2
E------------------| |---------------|
B------------------| |---------------|
G------------------| |---------------|
D--2-2-2-2-2-2-2-2-| |--5--5--7--7---|
A------------------| |--2--3--4--5---|
E------------------| |---------------|

RIFF
guitar 1
E|--------------------------------|
B|--------------------------------|
G|---9--7--x-7----x------x--------|
D|---9--7--x-7--5-x-5--7-x-4--5---|
A|---7--5--x-5--5-x-5--7-x-4--5---|
E|-0------------3---3--5---2--3---|
guitar 2
E|--------------------------------|
B|------3----3--3---3------3--3---|
G|------2----2--0---0--2---2--0---|
D|---2--0----0--0---0--2---0--0---|
A|---2-----------------0----------|
E|---0----------3---3------2--3---|

RIFF 2
                             .  .  .  .  .  .    .  .  .  .  .  . 
|---------------------------12-12-12-12-12-12--------------------------|------------------|
|---------------------------12-12-12-12-12-12---13-13-13-13-13-13------|------------------|
|---------------------------------------------5-12-12-12-12-12-12--7---|---4---5---6---7--|
|---2----------------------2------------------5--------------------7---|---4---5---6---7--|
|---2----------------------2------------------3--------------------5---|-0-2-0-3-0-4-0-5--|
|---0----------------------0-------------------------------------------|------------------|
  "how you gonnah...."

CHORUS
E-----7---7---7---8--8----7--5--5--------------------------------------|----------------------
B----------------------------------------------------------------------|----------------------
G--/7---7---7---7------7--------------7-7-7-7-7-7-7-7-7-7-7-7-7-7-7----|----4---5---6---7-----
D-------------------------------------7-7-7-7-7-7-7-7-7-7-7-7-7-7-7----|----4---5---6---7-----
A-------------------------------------5-5-5-5-5-5-5-5-5-5-5-5-5-5-5----|--0-2-0-3-0-4-0-5-0---
E----------------------------------------------------------------------|----------------------
 "saved by               saved in the nick of time"                       (back to riff)

SOLO
   
E|-----------------------------------------------------------------5b--------------------------|
B|-----------------------------------------------------------------5b-7-5-7b~~---(3/-\)--------|
G|--2------------------------------------------------------------x----7-5----------------------|
D|----------------------------------5~2b--0^3^0-------5---5-7-7--------------------------------|
A|-<0>-2-<0>-3-<0>-4-<0>-5-----5-7--------------3-5-----7--------------------------------------|
E|---------------------------------------------------------------------------------------------|


E|--------------------------------------------------------------------12-12---12----12-12----12|
B|--11-12b\-------------------------12-12-10-12--10---------------15b------15----15-------15---|
G|-----------14b-12-----------11/-------------------12/14-12-----------------------------------|
D|------------------14-12-14---------------------------------14~~------------------------------|
A|---------------------------------------------------------------------------------------------|
E|---------------------------------------------------------------------------------------------|


E|--12----12----12------------------12-15^12---------------------------------------------------|
B|-----15----15------/15^17~~~~~~~-----------15-12----12---------------------------------------|
G|-------------------------------------------------14------------------------------------------|
D|-------------------------------------------------------------------------<5>-<7>-<5>-<7>-----|
A|---------------------------------------------------------/--\-5-7-<7>~~~---------------------|
E|---------------------------------------------------------------------------------------------|

                                                                                    pick slide
E|-----------------5-10-10-5-10---/12b-----------------------12-15^12--------------------------|
B|--5-8-5-8/10~~~--5-10-10-5-10--------15-12----12-----12-15----------15^12----12--------------|
G|-------------------------------------------14----12-----------------------14----14--x/-------|
D|------------------------------------------------------------------------------------x/-/7~~~~|
A|------------------------------------------------------------------------------------x/-------|
E|---------------------------------------------------------------------------------------------|
                                                                                   hold vibrato
                                                                                  with feed back
E|----------------------||----<0>--------------------------------------------------------------|
B|-------------3--------||-------^5---------5--------------------------------------------------|
G|---0---2-----0----2---||--/-------<7>-<5>---<7>5---/9--12b----12-9------9--------------------|
D|---0---2----------2---||--/----------------------------------------12-9---12-9--10-<7>7~~~---|
A|-------0-----3----0---||---------------------------------------------------------------------|
E|---3------------------||---------------------------------------------------------------------|


E|---------------------------------------------------------------------------------------------|
B|---<5>-----5---------------------5-------5------------------------1--0^1^0^1^0^1^0^1^0-------|
G|-------7-5---<7>-5----5------------7-5-----7-5----------------0-2----------------------0-2---|
D|------------------------7-<7>~~--------7--------x<5>5<3><5>----------------------------------|
A|---------------------------------------------------------------------------------------------|
E|---------------------------------------------------------------------------------------------|

E|----------------------------------14b-12--\/15~~--12-15-15-12-15-15-12-15--14-15-15-14-15-15-|
B|----------0^1^0-----------------------------------12-12-12-12-12-12-12-12--14-14-14-14-14-14-|
G|---<2><2>-------2--<0><2><0><2>--------------------------------------------------------------|
D|---------------------------------------------------------------------------------------------|
A|---------------------------------------------------------------------------------------------|
E|---------------------------------------------------------------------------------------------|


E|--14-15-15-15-15-15--17b-17b-17b-17b--~~~\--||
B|--14-14-15-15-15-15-------------------------||
G|--------------------------------------------||
D|--------------------------------------------||
A|--------------------------------------------||
E|--------------------------------------------|| end of solo 1

solo 2
E|-------------------------------------------10-10-7-10-----------17~~17~~~-----21-21-20-17-17-|
B|----/12--15-15b-12-15~~----------------------------------------------------------------------|
G|--------------------------------------7-9----------------x\----------------------------------|
D|----------------------------------7/9--------------------x\-7~~------------------------------|
A|---------------------------------------------------------------------------------------------|
E|---------------------------------------------------------------------------------------------|

                                  FREE TIME
E|--17~~\------------------------------------------------------------------------------||
B|-------------10~10~10~10~~~~----------------------3^5^3-----3------------------------||
G|--------------9--9--9--9-----------9b~~~~~~~~~-\--------2/4---4^2^0------------------||
D|--------------------------------(2)---------------------------------0-2~~~~~~~~~--2--||
A|--------------------------------(2)-----------------------------------------------2--||
E|--------------------------------(0)-----------------------------------------------0--||
Composição de Angus Young / Brian Johnson / Malcolm Young
3.017 exibições
    • ½ Tom
    • A
    • Bb
    • B
    • C
    • Db
    • D
    • Eb
    • E
    • F
    • F#
    • G
    • Ab
  • Adicionar à lista

    0 comentários

    Mostrar mais comentários

    Conseguiu tocar?

    0 Tocaram 0 Ainda não

    Grave um vídeo tocando Nick Of Time e mande pra gente!

    00:00 / 00:00
    outros vídeos desta música
    repetir qualidade Automático
    Outros vídeos desta música
    00:00 / 00:00
    Automático

    Cifra Club Pro

    Aproveite o Cifra Club com benefícios exclusivos e sem anúncios
    7 dias grátis
    Cifra Club Pro
    Aproveite o Cifra Club com benefícios exclusivos e sem anúncios
    7 dias grátis
    OK