Cifra Club

Aprenda

Rock N Roll Aint Noise Pollution

AC/DC

Cifra: Principal (violão e guitarra)
Tom: D
E |-------------||------------------|------------------|-----------------------||
B |--0---2---3--||---2---2---3------|-------0---2---3--|---2---2---3-----------||
G |--1---2---4--||.--2---2---4------|-------1---2---4--|---2---2---4------9\\-.||
D |-------------||.-----------------|---2--------------|------------------9\\-.||
A |-------------||---0---0---0------|---2--------------|---0---0---0------7\\--||
E |-------------||---------------3--|---0--------------|---------------3--0----||

E |--------------|-------------------|-------------------|------------------|
B |--0---2---3---|----2---2---3------|--------0---2---3--|---2---2----------|
G |--1---2---4---|----2---2---4------|--------1---2---4--|---2---2-------1--|
D |--------------|-------------------|---2---------------|---------------2--|
A |--------------|----0---0---0------|---2---------------|---0---0-------2--|
E |--------------|----------------3--|---0---------------|-----------3---0--|

E |--------------|------------------|------------------|------------------------|
B |--0---2---3---|---2---2---3------|-------0---2---3--|---2---2---3------------|
G |--1---2---4---|---2---2---4------|-------1---2---4--|---2---2---4------9\\---|
D |--------------|------------------|---2--------------|------------------9\\---|
A |--------------|---0---0---0------|---2--------------|---0---0---0------7\\---|
E |--------------|---------------3--|---0--------------|---------------3--0-----|

E |--------------|------------------|------------------|------------------------|
B |--0---2---3---|---2---2---3------|-------0---2---3--|---2---2---3------------|
G |--1---2---4---|---2---2---4------|-------1---2---4--|---2---2---4------9-----|
D |--------------|------------------|---2--------------|------------------9-----|
A |--------------|---0---0---0------|---2--------------|---0---0---0------7-----|
E |--------------|---------------3--|---0--------------|---------------3--0-----|

E |-----|---------------------|-----------------------|-------------------------
B |-----|---------------------|-----------------------|-------------------------
G |-----|-------------------2-|--------------------9--|-----------------2-------
D |--2--|-------------------2-|--2---4---2----9----9--|-----------------2-------
A |--2--|---2---4---5-------0-|--0---0---0----9\11----|-2---4---2-------0-------
E |--0--|---0---0---0---3-----|-----------------------|-0---0---0---3-----------

E |---------------------|----------------------|--------------------------------
B |---------------------|----------------------|--------------------------------
G |--------------4------|-------------------2--|--------------------4---4-------
D |--2---4---2-------6--|-------------------2--|-----4---2------------6---6-----
A |--0---0---0----------|--2---4----5-------0--|-----0---0----------------------
E |---------------------|--0---0----0---3------|--------------------------------

E |----------------------------|-------------------------------------------------
B |----------------------------|-------------------------------------------------
G |-------------------------2--|---2---------2----2------------------------------
D |-------------------------2--|---2----4----2----2----4-------------------------
A |--2-----4-----2----------0--|---0----0----0----0----0-------------------------
E |--0-----0-----0-----3-------|----------------------------0--------------------

E |---------------------------------------|-------------------------------------
B |----------------------3----------------|----4--------------------------------
G |--------9-------------2----------------|----4--------------9-----------------
D |--------9-------------0----------------|----4--------------9-----------------
A |--------7-------------0-------------2--|----2--------------7--------------7--
E |--------0------------------------------|-------------------0--------------0--

E |-------------------------------------|---------------------------------------
B |---------------------3------------4--|---4---4---4---4---4---4---4---4-------
G |----9----------------2------------4--|---4---4---4---4---4---4---4---4-------
D |----9----------------0------------4--|---4---4---4---4---4---4---4---4-------
A |----7----------------0------------2--|---2---2---2---2---2---2---2---2-------
E |----0--------------------------------|---------------------------------------

E |----------------------------------------|------------------------------------
B |----4-------4-------4------1----2----3--|----2------2------3-----------------
G |----4-------4-------4------0----2----4--|----2------2------4-----------9-----
D |----4-------4-------4-------------------|----2------2------------------9-----
A |----2-------2-------2-------------------|----0------0------0-----------7-----
E |----------------------------------------|-------------------------3----0-----

E |--------------|-------------------|-------------------|---------------------|
B |--0---2---3---|----2---2---3------|--------0---2---3--|---2---2---3---------|
G |--1---2---4---|----2---2---4------|--------1---2---4--|---2---2---4------1--|
D |--------------|----2---2----------|---2---------------|---2---2----------2--|
A |--------------|----0---0---0------|---2---------------|---0---0----------2--|
E |--------------|----------------3--|---0---------------|--------------3---0--|

E |--------------|--------------------|------------------||
B |--0---2---3---|----2---2-----------|------------------||
G |--1---2---4---|----2---2-------9^^-|-^^^^^^^^^^^-----.||
D |--------------|----2---2-------9^^-|-^^^^^^^^^^^-----.||
A |--------------|----0---0-------7^^-|-^^^^^^^^^^^------||
E |--------------|------------3---0---|------------------||

E |-----|---------------------|-----------------------|-------------------------
B |-----|---------------------|-----------------------|-------------------------
G |-----|-------------------2-|--------------------9--|-----------------2-------
D |--2--|-------------------2-|--2---4---2----9----9--|-----------------2-------
A |--2--|---2---4---5-------0-|--0---0---0----9\11----|-2---4---2-------0-------
E |--0--|---0---0---0---3-----|-----------------------|-0---0---0---3-----------

E |---------------------|----------------------|--------------------------------
B |---------------------|----------------------|--------------------------------
G |--------------4------|-------------------2--|--------------------4---4-------
D |--2---4---2-------6--|-------------------2--|-----4---2------------6---6-----
A |--0---0---0----------|--2---4----5-------0--|-----0---0----------------------
E |---------------------|--0---0----0---3------|--------------------------------

E |----------------------------|------------------------------------------------
B |----------------------------|------------------------------------------------
G |-------------------------2--|---2---------2----2-----------------------------
D |-------------------------2--|---2----4----2----2----4------------------------
A |--2-----4-----2----------0--|---0----0----0----0----0------------------------
E |--0-----0-----0-----3-------|----------------------------0-------------------

E |---------------------------------------|-------------------------------------
B |----------------------3----------------|----4--------------------------------
G |--------9-------------2----------------|----4--------------9-----------------
D |--------9-------------0----------------|----4--------------9-----------------
A |--------7-------------0-------------2--|----2--------------7--------------7--
E |--------0------------------------------|-------------------0--------------0--

E |-------------------------------------|---------------------------------------
B |---------------------3------------4--|---4---4---4---4---4---4---4---4-------
G |----9----------------2------------4--|---4---4---4---4---4---4---4---4-------
D |----9----------------0------------4--|---4---4---4---4---4---4---4---4-------
A |----7----------------0------------2--|---2---2---2---2---2---2---2---2-------
E |----0--------------------------------|---------------------------------------

E |----------------------------------------|------------------------------------
B |----4-------4-------4------1----2----3--|----2------2------3-----------------
G |----4-------4-------4------0----2----4--|----2------2------4-----------9-----
D |----4-------4-------4-------------------|----2------2------------------9-----
A |----2-------2-------2-------------------|----0------0------0-----------7-----
E |----------------------------------------|-------------------------3----0-----

E |--------------|-------------------|-------------------|---------------------|
B |--0---2---3---|----2---2---3------|--------0---2---3--|---2---2---3---------|
G |--1---2---4---|----2---2---4------|--------1---2---4--|---2---2---4------1--|
D |--------------|----2---2----------|---2---------------|---2---2----------2--|
A |--------------|----0---0---0------|---2---------------|---0---0----------2--|
E |--------------|----------------3--|---0---------------|--------------3---0--|

E |--------------|--------------------|------------------||
B |--0---2---3---|----2---2-----------|------------------||
G |--1---2---4---|----2---2-------9^^-|-^^^^^^^^^^^-----.||
D |--------------|----2---2-------9^^-|-^^^^^^^^^^^-----.||
A |--------------|----0---0-------7^^-|-^^^^^^^^^^^------||
E |--------------|------------3---0---|------------------||

E |-----------------------------------------------------------------------------
B |--------------2--2^^----2--2^^--------5------\8--8--8-----------9--9\--------
G |--2(4)2--\4---3--3^^----2--2^^----\6-----6---\9--9--9---9-9--9-----9\-------
D |-------------------------------------------------------------------9\--------
A |-----------------------------------------------------------------------------
E |-----------------------------------------------------------------------------

E |----------------------------------------------------------12--12--15-\\------
B |----------9--9------------15------------------15----------12--12--14-\\-----
G |----------9--9----14(16)------(16)14--12--14------14--12--------------------
D |---11__9--9--9--------------------------------------------------------------
A |-----------------------------------------------------------------------------
E |-----------------------------------------------------------------------------

E |-----------------------------------------------------------------------------
B |---15------------------------------------------------------------------------
G |---14------------------------------------------------------------------------
D |-----------------------------------------------------------------------------
A |-----------------------------------------------------------------------------
E |-----------------------------------------------------------------------------
Composição de Angus Young / Brian Johnson / Malcolm Young
6.639 exibições
  • Simplificar cifra
    • ½ Tom
    • A
    • Bb
    • B
    • C
    • Db
    • D
    • Eb
    • E
    • F
    • F#
    • G
    • Ab
  • Adicionar à lista

    0 comentários

    Mostrar mais comentários

    Conseguiu tocar?

    2 Tocaram 0 Ainda não

    Grave um vídeo tocando Rock N Roll Aint Noise Pollution e mande pra gente!

    00:00 / 00:00
    outros vídeos desta música
    repetir qualidade Automático
    Outros vídeos desta música
    00:00 / 00:00
    Automático
    OK