Cifra Club

Aprenda

Rock N Roll Aint Noise Pollution

AC/DC

Tab de baixo: Versão 3
SONG NAME :Rock & Roll Ain't Noise Pollution.

Tabbed By : Bruno Orlando

e-mail: *

Tuning: E A D G

Enter after Brian says:
 
 Hey, there, all you middle men.
 Throw away your fancy clothes. 
 And while you're out there sitting on a fence, so get of your ass and                        
 come down here, cause Rock n' roll ain't no riddle man.
 To me it makes good, good sense.
 Good sense, that's all.

Intro:  
G|---------------------------------------------------------------|
D|---------------------------------------------------------------|
A|---2-4-5—-4-4------------------2-4-5---4-4---------------------|
E|-----------5-5-7—b3-0-----0-------------5—---b3-0--------------|

G|---------------------------------------------------------------|
D|---------------------------------------------------------------|
A|---2-4-5—-4-4------------------2-4-5---4-7---------------------|
E|-----------5--5—b3-0-------0------------5—5--b3-0--------------|

Verse: x4
G|---------------------------------------------------------------|
D|---------------------------------------------------------------|
A|----------------------------0-0-0-0-0-0-0-2--------------------|
E|--------2--0-0-0-0-0-0-0-2-------------------------------------|

4th time:
G|---------------------------------------------------------------|
D|---------------------------------------------------------------|
A|----------------------------0-0-0-0-0-2-4-5--------------------|
E|-----------0-0-0-0-0-0-0-2-------------------------------------|

We're just  talkin'  about  the future. . . 
G|---------------------------------------------------------------|
D|---------------------------------------------------------------|
A|--7-5--2-7--7-5--------7-7/9-7-5-0-4-0-2-0---------------------|
E|-----------------5-3-2-----------------------------------------|

Chorus:
G|---------------------------------------------------------------|
D|---------------------------------------------------------------|
A|---2-4-5—-4-4------------------2-4-5---4-4---------------------|
E|-----------5--5—b3-0-----0--------------5—5---b3-0-------------|

G|---------------------------------------------------------------|
D|---------------------------------------------------------------|
A|---2-4-5—-4-4------------------2-4-5---4-7---------------------|
E|-----------5-7--5—b3-0----0--------------5—5--b3-0-------------|

Repeat Versex4

4th time:
G|---------------------------------------------------------------|
D|---------------------------------------------------------------|
A|----------------------------0-0-0-0-0--------------------------|
E|-----------0-0-0-0-0-0-0-2--------------7-5-0------------------|

We're just  talkin'  about  the future. . . 
G|---------------------------------------------------2/4---------|
D|-----------------------------------------------2h4-------------|
A|--7-5--2-7--7-5----------------------------2h4-----------------|
E|-----------------5--5-5-5-5-5--5-5-5-5-5-----------------------|

Chorus:
G|---------------------------------------------------------------|
D|------------------------------------------4--------------------|
A|---2-4-5—-4-4------------------2-4-5---4-4---------------------|
E|-----------5-3-5—b3-0-----0-------------5—----b3-0-------------|

G|---------------------------------------------------------------|
D|---------------------------------------------------------------|
A|---2-4-5—-4-4------------------2-4-5---4-4--4-5/7-7-7-7-7-7-7--|
E|-----------5-3--5—b3-0----0-------------5—3--------------------|

Solo:
G|---------------------------------------------------------------|
D|---------------------------------------------------------------|
A|-----------------------------5/7-------------------------------|
E|-0-0-0-0-0-0-0-3/5-5-5-5-5-5-----0-0-0-0-0-0-0-3/5-5-5-5-5-5---|

G|---------------------------------------------------------------|
D|---------------------------------------------------------------|
A|-5/7-7-7-7-7-7-7-7-7-------------------------------------------|
E|----------------------3--5-5-5-5-5-5-5-5--3--0-0-0-0-0-0-0-0---|

G|---------------------------------------------------------------|
D|---------------------------------------------------------------|
A|---------------------3h4-4/5-5/7-7--7-5--2-5--7-5--------------|
E|-3--5-5-5-5-5-5-5-5--------------------------------5-5-5-------|

G|--------------------------|
D|--------------------------|
A|------4---2---------------|
E|-2-h4---4--0--5-5-5--2-h4-|

Chorus:
G|---------------------------------------------------------------|
D|--------------------------------------------4------------------|
A|---2-4-5—-4-4------------------2-4-5---4-4-4-4-----------------|
E|-----------5-3-5—b3-0-----0-------------5—3---5-3--------------|

G|---------------------------------------------------------------|
D|---------------------------------------------------------------|
A|---2-4-5—-4-4------------------2-4-5---4-4--4------------------|
E|-----------5-3--5—b3-0----0-------------5—5-3-0----------------|



G|---------------------------------------------------------------|
D|---------------------------------------------------------------|
A|---2-2-4-5—-4-4------------------2-2-4-5---4-4-----------------|
E|-------------5-5—b3-0-----0-----------------5—-b3--------------|

G|---------------------------------------------------------------|
D|---------------------------------------------------------------|
A|---2-2-4-5—-4-4------------------2-2-4-5-----4-----------------|
E|-------------5-5—b3-0-----0---------------5----b5-b3~--0-------|

| / slide up
| \ slide down
| h hammer-on
| p pull-off
| ~ vibrato
| + harmonic
| x Mute note
| b Bend


I'm pretty sure it's right, but for any comments there's my e-mail.
MEEEROOOLLL!!!

ATTE: BrUnIcHi
Composição de Angus Young / Brian Johnson / Malcolm Young
237 exibições

0 comentários

Mostrar mais comentários

Conseguiu tocar?

0 Tocaram 0 Ainda não

Grave um vídeo tocando Rock N Roll Aint Noise Pollution e mande pra gente!

00:00 / 00:00
outros vídeos desta música
repetir qualidade Automático
Outros vídeos desta música
00:00 / 00:00
Automático
OK