Cifra Club

Aprenda

Shot Of Love

AC/DC

Cifra: Principal (violão e guitarra)
Tom: E
E-------------|-------------|-------------|--------------|------------|------
B-----1-2-1---|-----0-1-0---|--3----------|-----2-3-2----|------------|----0-
G-----------2-|--0--------0-|--2----------|--2--------2--|----1-2-1---|--0---
D--2----------|--0----------|--0--4-5-4-0-|--2-----------|--2-------2-|--0---
A--2----------|-------------|-------------|--0-----------|--2---------|------
E--0----------|--3----------|-------------|--------------|--0---------|--3---
  g2
E-----4-5-4---|-----7-8-7---|-----2-3-2---|-----9-10-9---|----4-5-4---|----7-
B--5--------5-|--8--------8-|--3--------3-|--10--------10|--5-------5-|--8---
G--4----------|--7----------|--2----------|--9-----------|--4---------|--7---
D-------------|-------------|-------------|--------------|------------|------
A-------------|-------------|-------------|--------------|------------|------
E-------------|-------------|-------------|--------------|------------|------

both guitars
E-----2-3-2---|-----------------------------|--------------------------|
B--3--------3-|--10-------------------------|-------------->-->-->-->-->
G--2----------|--9--------------------------|--2--2--2--2--2--2--2--2--|
D--0--4-5-4-0-|--2--------------------------|--2--2--2--2--2--2--2--2--|
A-------------|--0--------------------------|--0--0--0--0--0--0--0--0--|
E-------------|-----------------------------|--------------------------|

RIFF
Guitar 1
E---------------------------|
B---------------------------|
G---5---------------5-------|
D---5---3---5---3---5---5---|
A---3---3---5---3---3---5---|
E-------1---3---1-------3---|
                              repeat
E---------------------------|
B---1---------------1-------|
G---0-------0-------0---0---|
D-------3---0---3-------0---|
A---3---3-------3---3-------|
E-------1---3---1-------3---|


        chorus
        E---2---3------------|---2---3-------------|
        B---3---3------------|---3---3-------------|
        G---2---0---2---2-2--|---2---0---2---2-2---|
        D---0---0---2---2-2--|---0---0---2---2-2---|
        A-------2---0---0-0--|-------2---0---0-0---|
        E-------3------------|-------3-------------|
       "lets fake it,        dont waste it"

SOLO (look out cheech, its a hard one!)
E|-------------------------------------------------------------------------------------------------
B|---12---------------------------------------------------------11--8------------------------------
G|---10b----------8-----------8------------------------------8---------19br--8----10----8----------
D|------------------10---10-----------8--8--8--10--10--10----------------------10----10----10------
A|-------------------------------------------------------------------------------------------------
E|-------------------------------------------------------------------------------------------------

E|----------------------------------------------------------------------15-----15-14-13------------|
B|--11b----11b----11b------------------------------13--16b--16b----13-------------------13-16b-13\-|
G|------------------------8--------------------12--------------------------------------------------|
D|---------------------------10~~~~~10\------------------------------------------------------------|
A|-------------------------------------------------------------------------------------------------|
E|-------------------------------------------------------------------------------------------------|
Composição de Angus Young / Malcolm Young
3.851 exibições
    • ½ Tom
    • A
    • Bb
    • B
    • C
    • Db
    • D
    • Eb
    • E
    • F
    • F#
    • G
    • Ab
  • Adicionar à lista

    0 comentários

    Mostrar mais comentários

    Conseguiu tocar?

    0 Tocaram 0 Ainda não

    Grave um vídeo tocando Shot Of Love e mande pra gente!

    00:00 / 00:00
    outros vídeos desta música
    repetir qualidade Automático
    Outros vídeos desta música
    00:00 / 00:00
    Automático
    OK