Cifra Club

Aprenda

Skies On Fire

AC/DC

Tab de baixo: Principal
(intro)    
G|-----------------|-----------------|-----------------|-----------------|
D|-----------------|-----------------|---45-----55-5---|-----------------|
A|-----------------|-----------------|-57-----57-------|-5---------------|
D|-----------------|-----------------|-----------------|-----------------|

G|-----------------|-----------------|-----------------|-----------------|
D|---45-----55-5---|-----------------|---45-----55-5---|-----------------|
A|-57-----57-------|-5---------------|-57-----57-------|-5---------------|
D|-----------------|-----------------|-----------------|-----------------|
        
G|-----------------|-----------------|
D|---45-----55-5---|-----------------|
A|-57-----57-------|-5---------------|
D|-----------------|-----------------|

         
G|-----------------|-----------------|-----------------|-----------------|
D|-----------------|-----------------|-----------------|-----------------|
A|-----------------|-----------------|-----------------|--3----5---------|
D|--7--5--3---03---|--7--5--3---03---|--7--5--3---03---|-----5-----------|
    
G|-----------------|-----------------|-----------------|-----------------|
D|-----------------|-----------------|-----------------|-----------------|
A|-----------------|-----------------|-----------------|--3----5---------|
D|--7--5--3---03---|--7--5--3---03---|--7--5--3---03---|-----5-----------|
       
G|-----------------|-----------------|-----------------|
D|-----------------|-----------------|-----------------|
A|--3----5---------|--3--2-5---------|--3----5---------|
D|-----5-----------|-----------------|-----5-----------|
 
G|-----------------|-----------------|-----------------|-----------------|
D|---45-----55-5---|-----------------|---45-----55-5---|-----------------|
A|-57-----57-------|-5---------------|-57-----57-------|-5---------------|
D|-----------------|-----------------|-----------------|-----------------|
 
G|-----------------|-----------------|-----------------|-----------------|
D|---45-----55-5---|-----------------|---45-----55-5---|-----------------|
A|-57-----57-------|-5---------------|-57-----57-------|-5---------------|
D|-----------------|-----------------|-----------------|-----------------|
 
G|-----------------|-----------------|-----------------|-----------------|
D|-----------------|-----------------|-----------------|-----------------|
A|-----------------|-----------------|-----------------|-----------------|
D|--7--5--3---03---|--7--5--3---03---|--7--5--3---03---|--7--5--3---03---|
  
G|-----------------|-----------------|-----------------|-----------------|
D|-----------------|-----------------|-----------------|-----------------|
A|-----------------|-----------------|-----------------|--3----5---------|
D|--7--5--3---03---|--7--5--3---03---|--7--5--3---03---|-----5-----------|
          
G|-----------------|-----------------|-----------------|
D|-----------------|-----------------|-----------------|
A|--3----5---------|--3--2-5---------|--3----5---------|
D|-----5-----------|-----------------|-----5-----------|
 
G|-----------------|-----------------|-----------------|---------7-7-7\--|
D|---45-----55-5---|-----------------|---45-----55-5---|------/7---------|
A|-57-----57-------|-5---------------|-57-----57-------|-5---------------|
D|-----------------|-----------------|-----------------|-----------------|
 
G|-----------------|-----------------|-----------------|-----------------|
D|-----------------|-----------------|---45-----55-5---|-----------------|
A|-----------------|-5---------------|-57-----57-------|-5---------------|
D|-0245---0255-5---|-----------------|-----------------|-----------------|
     
G|-----------------|-----------------|-----------------|-----------------|
D|-----------------|-----------------|-----------------|-----------------|
A|-----------------|-----------------|-----------------|-----------------|
D|--7--5--3---03---|--7--5--3---03---|--7--5--3---03---|--7--5--3---03---|
     
G|-----------------|-----------------|-----------------|-----------------|
D|-----------------|-----------------|-----------------|-----------------|
A|-----------------|-----------------|-----------------|--3----5---------|
D|--7--5--3---03---|--7--5--3---03---|--7--5--3---03---|-----5-----------|
      
G|-----------------|-----------------|-----------------|-----------------|
D|-----------------|-----------------|-----------------|-----------------|
A|--3----5---------|--3--2-5---------|--3----5---------|-----------------|
D|-----5-----------|-----------------|-----5-----------|-----------------|
 
G|-----------------|-----------------|-----------------|---------7---7\--|
D|-----------------|-----------------|-----------------|------/7---------|
A|-5---------------|-----------------|-5---------------|-5---------------|
E|-----------------|-----------------|-----------------|-----------------|
      
G|-----------------|-----------------|-----------------|-----------------|
D|-----------------|---45-----55-5---|-----------------|---45-----55-5---|
A|-5---------------|-57-----57-------|-5-5-5-5-5-5-5-5-|-57-----57-------|
E|-----------------|-----------------|-----------------|-----------------|
     
G|-----------------|-----------------|-----------------|-----------------|
D|-----------------|-----------------|-----------------|---45-----55-5---|
A|-5-5-5-5-5-5-5-5-|-----------------|-5-5-5-5-5-5-5-5-|-57-----57-------|
E|-----------------|-0245---0245-5---|-----------------|-----------------|
           
G|-----------------|-----------------|                 |-----------------|
D|-----------------|---45-----55-5---| Repeat last bar |-----------------|
A|-5-5-5-5-5-5-5-5-|-57-----57-------| 3x              |-------------5---|
E|-----------------|-----------------|                 |-----------------|
Composição de Angus Young / Malcolm Young
565 exibições

0 comentários

Mostrar mais comentários

Conseguiu tocar?

1 Tocaram 0 Ainda não

Grave um vídeo tocando Skies On Fire e mande pra gente!

00:00 / 00:00
outros vídeos desta música
repetir qualidade Automático
Outros vídeos desta música
00:00 / 00:00
Automático
OK