Stiff Upper Lip

AC/DC

Composição de: Angus Young / Malcolm Young
tom: D
E |------5------5-------------------|
B |----8----8-5---------------------|
G |----------------7-5----7--5------|
D |--------------------7--7--5------|
A |----0-0--0-0-0--0-0-0--0--0------|
E |---------------------------------|

..I was born with a stiff..
E |-------9~~~~~~~~~~~~0-----|
B |-------9~~~~~~~~~~~~2-----|
G |-------9~~~~~~~~~~~~2-----|
D |-------9~~~~~~~~~~~~0-----|
A |-------9~~~~~~~~~~~~0-----|
E |--------------------------|

E |----5-5----5-------------------|------5------5-------------------|
B |-------8-----------------------|----8----8-5---------------------|
G |----------------7-5----7--5----|----------------7-5----7--5------|
D |--------------------7--7--5----|--------------------7--7--5------|
A |-------------------------------|----0-0--0-0-0--0-0-0--0--0------|
E |-------------------------------|---------------------------------|

      And I shoot...And I shoot
E |-----------2-------------2-----|
B |-----------3-------------3-----|
G |-----------2-------------2-----|
D |-----------0-------------0-----|
A |-------------------------------|
E |-------------------------------|

E |----5-5----5-------------------|------5------5-------------------|
B |-------8-----------------------|----8----8-5---------------------|
G |----------------7-5----7--5----|----------------7-5----7--5------|
D |--------------------7--7--5----|--------------------7--7--5------|
A |-------------------------------|----0-0--0-0-0--0-0-0--0--0------|
E |-------------------------------|---------------------------------|

Página 1 / 1

Letras e título
Acordes e artista

resetar configurações
OK