Fast As a Shark

Accept

Composição de: Accept / Deaffy
tom: C
 Words and Music by P. Baltes, U. Dirkschneider, W. Hoffmann & S. Kaufmann 
 
 Intro 
  Doubletime Feel Q=140 
            N.C. 
 4/4 
  Gtr I 
            PM----------------------------| 
|---------|---------------------------------|------------------------------| 
|---------|---------------------------------|------------------------------| 
|---------|---------------------------------|------------------------------| 
|---------|---------------------------------|-8p5-7p5-8p5-(5)-7p5-8p5-7p5--| 
|---------|---------------------------------|-8p5-7p5-8p5-(5)-7p5-8p5-7p5--| 
|---------|-0-0-0-0-0-0-0-0-0-0-0-0-0-0-0-0-|------------------------------| 
 
 
    N.C. 
    PM----------------------------| 
||----------------------------------|-----------------------------| 
||o---------------------------------|-----------------------------| 
||----------------------------------|-----------------------------| 
||----------------------------------|-8p5-7p5-8p5-(5)-7p5-8p5-7p5-| 
||o---------------------------------|-8p5-7p5-8p5-(5)-7p5-8p5-7p5-| 
||--0-0-0-0-0-0-0-0-0-0-0-0-0-0-0-0-|-----------------------------| 
 
 
  N.C. 
  PM----------------------------| 
|---------------------------------|-----------------------------| 
|---------------------------------|-----------------------------| 
|---------------------------------|-----------------------------| 
|---------------------------------|-8p5-7p5-8p5-(5)-7p5-8p5-7p5-| 
|---------------------------------|-8p5-7p5-8p5-(5)-7p5-8p5-7p5-| 
|-0-0-0-0-0-0-0-0-0-0-0-0-0-0-0-0-|-----------------------------| 
 
 
 Verse 1 & 2 
  A5                              G5 
    PM------------------------|     PM------------------------| 
|-------------------------------|-------------------------------| 
|-------------------------------|-------------------------------| 
|-------------------------------|-------------------------------| 
|-2-----------------------------|-------------------------------| 
|-0-0-0-0-0-0-0-0-0-0-0-0-0-0-0-|-5-----------------------------| 
|-------------------------------|-3-3-3-3-3-3-3-3-3-3-3-3-3-3-3-| 
 
 
  F5                              E 
    PM------------------------------------------| 
|-------------------------------|-----------------------------| 
|-------------------------------|-----------------------------| 
|-------------------------------|-----------------------------| 
|-------------------------------|-----------------8p5-7p5-8p5-| 
|-3-----------------------------|-----------------8p5-7p5-8p5-| 
|-1-1-1-1-1-1-1-1-1-1-1-1-1-1-1-|-0-0-0-0-0-0-0-0-------------| 
 
 
  N.C.                          D5 
  PM------------| 
|-----------------------------|--------------------| 
|-----------------------------|--------------------| 
|-----------------------------|-7--7-(7)--7-(7)----| 
|-----------------8p5-7p5-8p5-|-7--7-(7)--7-(7)----| 
|-----------------8p5-7p5-8p5-|-5--5-(5)--5-(5)----| 
|-0-0-0-0-0-0-0-0-------------|--------------------| 
 
 
  F5                        A5 
|-------------------------|------| 
|-------------------------|------| 
|-10--10-(10)--10-(10)----|-2----| 
|-10--10-(10)--10-(10)----|-2----| 
|--8---8--(8)---8--(8)----|-0----| 
|-------------------------|------| 
 
 
  1.                                2. 
  B5                                B 
    PM------------------------------------------------------------| 
|--------------------------------||----------------------------------| 
|-------------------------------o||----------------------------------| 
|-4------------------------------||----------------------------------| 
|-4------------------------------||----------------------------------| 
|-2-2-2-2-2-2-2-2-2-2-2-2-2-2-2-o||-2-2-2-2-2-2-2-2-2-2-2-2-2-2-2-2--| 
|--------------------------------||----------------------------------| 
 
 
 Chorus 
  G5     A5       C5     E5       C5     D5 
  Gtr I 
|---------------|---------------|---------------| 
|---------------|---------------|---------------| 
|---------------|---------------|----2----------| 
|---------------|-----------2-4-|-5----5-4--2-0-| 
|----2-5-4--0-2-|-3--5-3-2------|---------------| 
|-3-------------|---------------|---------------| 
| 
| Gtr II 
|---------------|---------------|---------------| 
|---------------|---------------|---------------| 
|--------2------|-5-------------|-5------7------| 
|-5------2------|-5------2------|-5------7------| 
|-5------0------|-3------2------|-3------5------| 
|-3-------------|--------0------|---------------| 
 
 
  E                    G5     A5       C5     E5       C5   D5 
|--------------------|---------------|---------------|-----------| 
|--------------------|---------------|---------------|-----------| 
|--------------------|---------------|---------------|------2----| 
|-2------------------|---------------|-----------2-4-|-5---------| 
|--------------------|----2-5-4--0-2-|-3--5-3-2------|-----------| 
|--------------------|-3-------------|---------------|-----------| 
| 
|--------------------|---------------|---------------|-----------| 
|--------------------|---------------|---------------|-----------| 
|---9-(9)-7--9-(9)-7-|--------2------|-5-------------|-5----7----| 
|---9-(9)-7--9-(9)-7-|-5------2------|-5------2------|-5----7----| 
|---7-(7)-5--7-(7)-5-|-5------0------|-3------2------|-3----5----| 
|-0------------------|-3-------------|--------0------|-----------| 
 
 
   Bridge 
    N.C. 
    PM----------------------------| 
||----------------------------------|------------------------------|| 
||o---------------------------------|-----------------------------o|| 
||----------------------------------|------------------------------|| 
||----------------------------------|-8p5-7p5-8p5-(5)-7p5-8p5-7p5--|| 
||o---------------------------------|-8p5-7p5-8p5-(5)-7p5-8p5-7p5-o|| 
||--0-0-0-0-0-0-0-0-0-0-0-0-0-0-0-0-|------------------------------|| 
 
 
 Verse 3 
  A5                              G5 
    PM------------------------|     PM------------------------| 
|-------------------------------|-------------------------------| 
|-------------------------------|-------------------------------| 
|-------------------------------|-------------------------------| 
|-2-----------------------------|-------------------------------| 
|-0-0-0-0-0-0-0-0-0-0-0-0-0-0-0-|-5-----------------------------| 
|-------------------------------|-3-3-3-3-3-3-3-3-3-3-3-3-3-3-3-| 
 
 
  F5                              E 
    PM------------------------------------------| 
|-------------------------------|-----------------------------| 
|-------------------------------|-----------------------------| 
|-------------------------------|-----------------------------| 
|-------------------------------|-----------------8p5-7p5-8p5-| 
|-3-----------------------------|-----------------8p5-7p5-8p5-| 
|-1-1-1-1-1-1-1-1-1-1-1-1-1-1-1-|-0-0-0-0-0-0-0-0-------------| 
 
 
  N.C.                          D5 
  PM------------| 
|-----------------------------|--------------------| 
|-----------------------------|--------------------| 
|-----------------------------|-7--7-(7)--7-(7)----| 
|-----------------8p5-7p5-8p5-|-7--7-(7)--7-(7)----| 
|-----------------8p5-7p5-8p5-|-5--5-(5)--5-(5)----| 
|-0-0-0-0-0-0-0-0-------------|--------------------| 
 
 
  F5                        A5         B 
                                       PM----------------------------| 
|-------------------------|----------|---------------------------------| 
|-------------------------|----------|---------------------------------| 
|-10--10-(10)--10-(10)----|-2--------|---------------------------------| 
|-10--10-(10)--10-(10)----|-2--------|---------------------------------| 
|--8---8--(8)---8--(8)----|-0--------|-2-2-2-2-2-2-2-2-2-2-2-2-2-2-2-2-| 
|-------------------------|----------|---------------------------------| 
 
 
 Chorus 
  G5     A5       C5     E5       C5     D5 
|---------------|---------------|---------------| 
|---------------|---------------|---------------| 
|---------------|---------------|----2----------| 
|---------------|-----------2-4-|-5----5-4--2-0-| 
|----2-5-4--0-2-|-3--5-3-2------|---------------| 
|-3-------------|---------------|---------------| 
| 
| Gtr II 
|---------------|---------------|---------------| 
|---------------|---------------|---------------| 
|--------2------|-5-------------|-5------7------| 
|-5------2------|-5------2------|-5------7------| 
|-5------0------|-3------2------|-3------5------| 
|-3-------------|--------0------|---------------| 
 
 
  E                    G5     A5       C5     E5 
|--------------------|---------------|---------------| 
|--------------------|---------------|---------------| 
|--------------------|---------------|---------------| 
|-2------------------|---------------|-----------2-4-| 
|--------------------|----2-5-4--0-2-|-3--5-3-2------| 
|--------------------|-3-------------|---------------| 
| 
|--------------------|---------------|---------------| 
|--------------------|---------------|---------------| 
|---9-(9)-7--9-(9)-7-|--------2------|-5-------------| 
|---9-(9)-7--9-(9)-7-|-5------2------|-5------2------| 
|---7-(7)-5--7-(7)-5-|-5------0------|-3------2------| 
|-0------------------|-3-------------|--------0------| 
 
 
  C5   D5     B5 
|-----------|----------|--------------| 
|-----------|----------|--------------| 
|------2----|----------|--------------| 
|-5---------|-4--------|-(4)----------| 
|-----------|-2--------|-(2)----------| 
|-----------|----------|--------x\----| 
| 
|-----------|----------|--------------| 
|-----------|----------|--------------| 
|-5----7----|-4--------|-(4)----------| 
|-5----7----|-4--------|-(4)----------| 
|-3----5----|-2--------|-(2)----------| 
|-----------|----------|--------------| 
 
 
   Interlude 
    G5 
    Gtr I 
||----------------------------|------------------------|| 
||o-x-x-x---------------------|-x-x-x-----------------o|| 
||--x-x-x-3-(3)--5-(5)--6-5-3-|-x-x-x-3-(3)--5-(5)-----|| 
||--x-x-x-3-(3)--5-(5)--6-5-3-|-x-x-x-3-(3)--5-(5)-----|| 
||o---------------------------|-----------------------o|| 
||----------------------------|------------------------|| 
 
 
  Bb5 
|---------------------------|-----------------------| 
|-x-x-x---------------------|-x-x-x-----------------| 
|-x-x-x-6-(6)--8-(8)--9-8-6-|-x-x-x-6-(6)--8-(8)----| 
|-x-x-x-6-(6)--8-(8)--9-8-6-|-x-x-x-6-(6)--8-(8)----| 
|---------------------------|-----------------------| 
|---------------------------|-----------------------| 
 
 
  C#5                                   E5/B   D5/A 
|-------------------------------|-----------------------| 
|-x-x-x-------------------------|-x-x-x-----------------| 
|-x-x-x-9-(9)--11-(11)--12-11-9-|-x-x-x-9-(9)--7-(7)----| 
|-x-x-x-9-(9)--11-(11)--12-11-9-|-x-x-x-9-(9)--7-(7)----| 
|-------------------------------|-----------------------| 
|-------------------------------|-----------------------| 
 
 
  G5 
|---------------------------|-----------------------| 
|-x-x-x---------------------|-x-x-x-----------------| 
|-x-x-x-3-(3)--5-(5)--6-5-3-|-x-x-x-3-(3)--5-(5)----| 
|-x-x-x-3-(3)--5-(5)--6-5-3-|-x-x-x-3-(3)--5-(5)----| 
|---------------------------|-----------------------| 
|---------------------------|-----------------------| 
 
 
  Bb5 
|---------------------------|-----------------------| 
|-x-x-x---------------------|-x-x-x-----------------| 
|-x-x-x-6-(6)--8-(8)--9-8-6-|-x-x-x-6-(6)--8-(8)----| 
|-x-x-x-6-(6)--8-(8)--9-8-6-|-x-x-x-6-(6)--8-(8)----| 
|---------------------------|-----------------------| 
|---------------------------|-----------------------| 
 
 
  C#5                                   G5     F#5 
|-------------------------------|-----------------------| 
|-x-x-x-------------------------|-----------------------| 
|-x-x-x-9-(9)--11-(11)--12-11-9-|-----------------------| 
|-x-x-x-9-(9)--11-(11)--12-11-9-|-x-x-x-5-(5)--4-(4)----| 
|-------------------------------|-x-x-x-5-(5)--4-(4)----| 
|-------------------------------|-x-x-x-3-(3)--2-(2)----| 
 
 
 Guitar Solo 
  B5                F#5 
  Gtr I 
                          ~ 
|------------|-----------------| 
|------------|-----------------| 
|------------|-----------------| 
|------------|-----------------| 
|-2----5--4--|-----------------| 
|------------|-3b5==5r==3-2----| 
| 
| Gtr III 
|------------|-----------------| 
|------------|-----------------| 
|-4----------|-----------------| 
|-4----------|------4----------| 
|-2----------|------4----------| 
|------------|------2----------| 
 
 
  A5                    B5 
                                   \0.5/  \0.5/ 
|---------------------|--------------------------| 
|---------------------|--------------------------| 
|---------------------|-----4-(4)-(4)----(4)-----| 
|---------------------|--------------------------| 
|-0-0-0-4b5==5r4b5-5--|-2------------------------| 
|---------------------|--------------------------| 
| 
|---------------------|--------------------------| 
|---------------------|--------------------------| 
|-2-------------------|-4------------------------| 
|-2-------------------|-4------------------------| 
|-0-------------------|-2------------------------| 
|---------------------|--------------------------| 
 
 
  A5 
|--------------------------------------------| 
|-/12-12-14p12----12-15p12-14p12----12-------| 
|--------------14----------------14----14-11-| 
|--------------------------------------------| 
|--------------------------------------------| 
|--------------------------------------------| 
| 
|--------------------------------------------| 
|--------------------------------------------| 
|---2----------------------------------------| 
|---2----------------------------------------| 
|---0----------------------------------------| 
|--------------------------------------------| 
 
 
  F#5 
|----------------------------------------| 
|----------------------------------------| 
|-10h11-10h11-13p11-10h11-10h11-9--------| 
|---------------------------------12-11--| 
|----------------------------------------| 
|----------------------------------------| 
| 
|----------------------------------------| 
|----------------------------------------| 
|----------------------------------------| 
|--4-------------------------------------| 
|--4-------------------------------------| 
|--2-------------------------------------| 
 
 
  Ab5                A5 
  Gtr I 
|-11p8---8-11p8------12p9----9-12p9-------| 
|------9--------9s10------10--------10s11-| 
|-----------------------------------------| 
|-----------------------------------------| 
|-----------------------------------------| 
|-----------------------------------------| 
| 
|-----------------------------------------| 
|-----------------------------------------| 
|-----------------------------------------| 
|--6------------------7-------------------| 
|--6------------------7-------------------| 
|--4------------------5-------------------| 
 
 
  Bb5         B5          C5          C#5 
|-13p10-------14p11-------15p12-------16p13-------| 
|-------11s12-------12s13-------13s14-------14s15-| 
|-------------------------------------------------| 
|-------------------------------------------------| 
|-------------------------------------------------| 
|-------------------------------------------------| 
| 
|-------------------------------------------------| 
|-------------------------------------------------| 
|-------------------------------------------------| 
|--8-----------9----------10----------11----------| 
|--8-----------9----------10----------11----------| 
|--6-----------7-----------8-----------9----------| 
 
 
    D 
    Gtr I 
||--17p14----14-17p14-15p14----14-17p14-15p14----14-| 
||o-------15----------------15----------------15----| 
||--------------------------------------------------| 
||--------------------------------------------------| 
||o-------------------------------------------------| 
||--------------------------------------------------| 
| 
|   Gtr II 
||--14p10----10-14p10-12p10----10-14p10-12p10----10-| 
||o-------10----------------10----------------10----| 
||--------------------------------------------------| 
||--------------------------------------------------| 
||o-------------------------------------------------| 
||--------------------------------------------------| 
| 
|   Gtr III 
|    PM---------------------------------------------- 
||--------------------------------------------------| 
||o-------------------------------------------------| 
||--------------------------------------------------| 
||--------------------------------------------------| 
||o--5--5--5--5--5--5--5--5--5--5--5--5--5--5--5--5-| 
||--------------------------------------------------| 
 
 
  Em 
|-19p15----15-19p15-17p15----15-19p15-17p15--------| 
|-------17----------------17----------------17-17--| 
|--------------------------------------------------| 
|--------------------------------------------------| 
|--------------------------------------------------| 
|--------------------------------------------------| 
| 
|-15p12----12-15p12-14p12----12-15p12-14p12--------| 
|-------12----------------12----------------12-12--| 
|--------------------------------------------------| 
|--------------------------------------------------| 
|--------------------------------------------------| 
|--------------------------------------------------| 
| 
|----------------------------------------------| 
|--------------------------------------------------| 
|--------------------------------------------------| 
|--------------------------------------------------| 
|--------------------------------------------------| 
|--7--7--7--7--7--7--7--7--7--7--7--7--7--7--7--7--| 
|--------------------------------------------------| 
 
 
  A 
|-15p12----12-15p12-14p12----12-15p12-14p12----12-| 
|-------14----------------14----------------14----| 
|-------------------------------------------------| 
|-------------------------------------------------| 
|-------------------------------------------------| 
|-------------------------------------------------| 
| 
|-12p=9-----9-12p=9-10p=9-----9-12p=9-10p=9-----9-| 
|-------10----------------10----------------10----| 
|-------------------------------------------------| 
|-------------------------------------------------| 
|-------------------------------------------------| 
|-------------------------------------------------| 
| 
|  PM---------------------------------------------- 
|-------------------------------------------------| 
|-------------------------------------------------| 
|-------------------------------------------------| 
|-------------------------------------------------| 
|--0--0--0--0--0--0--0--0--0--0--0--0--0--0--0--0-| 
|-------------------------------------------------| 
 
 
  1. 
  D 
|-15-14-12----------------------12-14-15p14-17p14--|| 
|----------15-14-12----12-14-15-------------------o|| 
|-------------------14-----------------------------|| 
|--------------------------------------------------|| 
|-------------------------------------------------o|| 
|--------------------------------------------------|| 
| 
|-12-10--9-----------------------9-10-12p10-14p10--|| 
|----------12-10----------10-12-------------------o|| 
|----------------12-11-12--------------------------|| 
|--------------------------------------------------|| 
|-------------------------------------------------o|| 
|--------------------------------------------------|| 
| 
|----------------------------------------------| 
|--------------------------------------------------|| 
|-------------------------------------------------o|| 
|--------------------------------------------------|| 
|--------------------------------------------------|| 
|--5--5--5--5--5--5--5--5--5--5--5--5--5--5--5--5-o|| 
|--------------------------------------------------|| 
 
 
  2. 
  D 
                                       ~~ 
|-15-14-12-------------------------------------| 
|----------15-14-12----------------------------| 
|-------------------14-12-11-------------------| 
|----------------------------14-12-11----------| 
|-------------------------------------14-------| 
|----------------------------------------------| 
| 
|                                      ~~ 
|-12-10--9-------------------------------------| 
|----------12-10--8----------------------------| 
|-------------------11--9--7-------------------| 
|----------------------------11--9--7----------| 
|-------------------------------------10-------| 
|----------------------------------------------| 
| 
|  PM------------------------------------------- 
|----------------------------------------------| 
|----------------------------------------------| 
|----------------------------------------------| 
|----------------------------------------------| 
|--5--5--5--5--5--5--5--5--5--5--5--5--5-5-5-5-| 
|----------------------------------------------| 
 
 
  Bm 
|-14p10----10-14p10-12p10----10-14p10-12p10----0-| 
|-------12----------------12----------------12---| 
|------------------------------------------------| 
|------------------------------------------------| 
|------------------------------------------------| 
|------------------------------------------------| 
| 
|-10p=7-----7-10p=7--9p=7-----7-10p=7--9p=7------| 
|--------7-----------------7-----------------7---| 
|----------------------------------------------9-| 
|------------------------------------------------| 
|------------------------------------------------| 
|------------------------------------------------| 
| 
|----------------------------------------------| 
|------------------------------------------------| 
|------------------------------------------------| 
|------------------------------------------------| 
|------------------------------------------------| 
|--2--2--2--2--2--2--2--2--2--2--2--2--2--2--2-2-| 
|------------------------------------------------| 
 
 
  Em 
|-15p12----12-15p12-14p12----12-15p12-14p12----0-| 
|-------14----------------14----------------14---| 
|------------------------------------------------| 
|------------------------------------------------| 
|------------------------------------------------| 
|------------------------------------------------| 
| 
|-12p=9-----9-12p=9-10p=9-----9-12p=9-10p=9----0-| 
|-------10----------------10----------------10---| 
|------------------------------------------------| 
|------------------------------------------------| 
|------------------------------------------------| 
|------------------------------------------------| 
| 
|  PM--------------------------------------------- 
|------------------------------------------------| 
|------------------------------------------------| 
|------------------------------------------------| 
|------------------------------------------------| 
|--7--7--7--7--7--7--7--7--7--7--7--7--7--7--7-7-| 
|------------------------------------------------| 
 
 
  A 
|-12p=9-----9-12p=9-10p=9-----9-12p=9-10p=9-----9-| 
|-------10----------------10----------------10----| 
|-------------------------------------------------| 
|-------------------------------------------------| 
|-------------------------------------------------| 
|-------------------------------------------------| 
| 
|--9-----------9-----------------9----------------| 
|----10----10----10-12p10----10----10-12p10----10-| 
|--------9-----------------9-----------------9----| 
|-------------------------------------------------| 
|-------------------------------------------------| 
|-------------------------------------------------| 
| 
|----------------------------------------------| 
|-------------------------------------------------| 
|-------------------------------------------------| 
|-------------------------------------------------| 
|-------------------------------------------------| 
|--0--0--0--0--0--0--0--0--0--0--0--0--0--0--0--0-| 
|-------------------------------------------------| 
 
 
  N.C. 
|-10p=9-----9----------------------------|---------------------------------| 
|-------12----10-12-8-10-7-8---7---------|---------------------------------| 
|----------------------------9---7-9-6-7-|---6-----------------------------| 
|----------------------------------------|-9---7-9-5-7-4-5---4-----4-------| 
|----------------------------------------|-----------------7---5-7---7-5-4-| 
|----------------------------------------|---------------------------------| 
| 
|----------------------------------------|---------------------------------| 
|-12p10--8-10--7--8----7-----------------|---------------------------------| 
|-------------------9----7-9-6-7---6-----|---------------------------------| 
|--------------------------------9---7-9-|-5-7-4-5---4---------------------| 
|----------------------------------------|---------7---5-7-4-5---4-5-4-----| 
|----------------------------------------|---------------------7-------7-5-| 
 
 
 Interlude 
  G E5                          G5 E5     G5 A6 
          PM----------------| 
|-----------------------------|-------------------| 
|-----------------------------|-------------------| 
|-----------------------------|-------------------| 
|---2-(2)---------------------|-5-2-(2)--5-7-(7)--| 
|---2-(2)---------------------|-5-2-(2)--5-7-(7)--| 
|-3-0-(0)-0-0-0-0-0-0-0-0-0-0-|-3-0-(0)--3-5-(5)--| 
 
 
  G E5                          D5 A5 B5 
          PM----------------| 
|-----------------------------|------------| 
|-----------------------------|------------| 
|-----------------------------|-7--2--4----| 
|---2-(2)---------------------|-7--2--4----| 
|---2-(2)---------------------|-5--0--2----| 
|-3-0-(0)-0-0-0-0-0-0-0-0-0-0-|------------| 
 
 
   Out-Chorus 
    G5     A5       C5     E5       C5     D5 
||----------------|---------------|---------------| 
||o---------------|---------------|---------------| 
||----------------|---------------|----2----------| 
||----------------|-----------2-4-|-5----5-4--2-0-| 
||o----2-5-4--0-2-|-3--5-3-2------|---------------| 
||--3-------------|---------------|---------------| 
| 
|   Gtr II 
||----------------|---------------|---------------| 
||o---------------|---------------|---------------| 
||---------2------|-5-------------|-5------7------| 
||--5------2------|-5------2------|-5------7------| 
||o-5------0------|-3------2------|-3------5------| 
||--3-------------|--------0------|---------------| 
 
 
  E                    G5     A5       C5     E5 
|--------------------|---------------|---------------| 
|--------------------|---------------|---------------| 
|--------------------|---------------|---------------| 
|-2------------------|---------------|-----------2-4-| 
|--------------------|----2-5-4--0-2-|-3--5-3-2------| 
|--------------------|-3-------------|---------------| 
| 
|--------------------|---------------|---------------| 
|--------------------|---------------|---------------| 
|---9-(9)-7--9-(9)-7-|--------2------|-5-------------| 
|---9-(9)-7--9-(9)-7-|-5------2------|-5------2------| 
|---7-(7)-5--7-(7)-5-|-5------0------|-3------2------| 
|-0------------------|-3-------------|--------0------| 
 
 
  1. 
  C5   D5     N.C. 
              PM----------------------------| 
|-----------|----------------------------------|| 
|-----------|---------------------------------o|| 
|------2----|----------------------------------|| 
|-5---------|----------------------------------|| 
|-----------|---------------------------------o|| 
|-----------|-0-0-0-0-0-0-0-0-0-0-0-0-0-0-0-0--|| 
| 
|             PM----------------------------| 
|-----------|----------------------------------|| 
|-----------|---------------------------------o|| 
|-5----7----|----------------------------------|| 
|-5----7----|----------------------------------|| 
|-3----5----|-7-7-7-7-7-7-7-7-7-7-7-7-7-7-7-7-o|| 
|-----------|----------------------------------|| 
 
 
  2.                               Q=62 
  C5   D5       C5   D5       C5   D5 
|-------------|-------------|-----------| 
|-------------|-------------|-----------| 
|-------------|-------------|-----------| 
|-5----4--2-4-|-5----4--2-4-|-5----4----| 
|-------------|-------------|-----------| 
|-------------|-------------|-----------| 
| 
|-------------|-------------|-----------| 
|-------------|-------------|-----------| 
|-5----7------|-5----7------|-5----7----| 
|-5----7------|-5----7------|-5----7----| 
|-3----5------|-3----5------|-3----5----| 
|-------------|-------------|-----------| 
 
 
  E5 C5 D5 E5        E5             E5 
                     ~~~~~~~ 
|-------------|--------------------------*| 
|-------------|--------------------------*| 
|-------------|-2b4==4--(4)-(4)r2p0------*| 
|-------------|---------------------2----*| 
|-------------|--------------------------*| 
|-------------|--------------------------*| 
| 
|          TP 
|-------------|--------------------------*| 
|-------------|--------------------------*| 
|-9--5--7-----|--------------------------*| 
|-9--5--7--2--|------2--------------2----*| 
|-7--3--5--2--|------2--------------2----*| 
|----------0--|------0--------------0----*|
Página 1 / 1

Letras e título
Acordes e artista

resetar configurações
OK