Cifra Club

Seja onde for

Acustico Montoya

Cifra: Principal (violão e guitarra)
tom: D
(RODRIGO MONTOYA)

D                      G
   Um garoto chamado Eloy
 A                D      A
    Que vivia a cantar
D                     G
 Conheceu sua outra metade
A          D            A
   Pra se apaixonar
D               G
  Viviam felizes
A             D       A
  Viviam pra se amar
D   G
     Mas o destino foi  cruel
D   G
    E o Eloy dela ele tomou
D   G
     Uma morte tão pinel 
D   G           A
     Que o coração cicatrizou
        
Refrão:

D                G      A          D           A
     Seja onde for,       estarei com você oh, baby
D                    G          A                 
     Não importa         o momento e o lugar
D                G      A           D           A
    Seja onde for,         sempre serei teu oh baby
D                    G          A                 
    Por favor,           não esqueça de sonhar

SOLO:

E|------|-----------|-5---10-|-10-10-7-|----7-10-|----7-9-|------|-9-1
B|------|-3---------|--------|---------|-14------|-12-----|------|----
G|------|---5-2-----|--------|---------|---------|--------|------|----
D|------|-------2-0-|---0----|---------|---------|--------|------|----
A|------|-----------|--------|---------|---------|--------|------|----
E|------|-----------|--------|---------|---------|--------|------|----

E|4-14-12-|-12-10-9-9-|-10-9-9-|-9-7-|-9-9-|-7-|-9-7-14-14-12-|-10-10-
B|--------|-----------|--------|-----|-----|---|--------------|-------
G|--------|-----------|--------|-----|-----|---|--------------|-------
D|--------|-----------|--------|-----|-----|---|--------------|-------
A|--------|-----------|--------|-----|-----|---|--------------|-------
E|--------|-----------|--------|-----|-----|---|--------------|-------

E|10-|-10-14-10-|-10-10-|-10-10-10-10-|-10-10-10-|
B|---|----------|-------|-------------|----------|
G|---|----------|-------|-------------|----------|
D|---|----------|-------|-------------|----------|
A|---|----------|-------|-------------|----------|
E|---|----------|-------|-------------|----------|

D                      G
    Sei que o coração dói
A                      D           A
    Mas a dor não pode matar
D                G
   Encontre a felicidade
A              D              A
   Só ela faz, você me encontrar
D               G
   Seja feliz baby
A         D       A
   E venha me amar
D   G
  Nos sonhos mando minha mensagem
D   G
  Pra você acreditar
D   G
  A cicatriz não é crueldade
D   G             A
  É a chave pra nos libertar

(refrão)
00:00 / 00:00
Outros vídeos desta música
Repetir
Outros vídeos desta música
Composição de Rodrigo Montoya
Colaboração e revisão:
  • MONTOYA Montoya
1.760 exibições
    • ½ Tom
    • A
    • Bb
    • B
    • C
    • Db
    • D
    • Eb
    • E
    • F
    • F#
    • G
    • Ab
  • Adicionar à lista

    0 comentários

    Ver todos os comentários

    Conseguiu tocar?

    0 Tocaram 0 Ainda não

    Grave um vídeo tocando Seja onde for e nos envie!

    Entre para oCifra Club PRO

    Tenha acesso a benefícios exclusivos no App e no Site

    • Chega de anúncios

    • Prioridade de compra em lançamentos

    • Mais recursos no app do Afinador

    • Atendimento Prioritário

    • Descontos nos produtos Cifra Club

    • Ajude a produzir mais conteúdo

    00:00 / 00:00

    Cifra Club Pro

    Aproveite o Cifra Club com benefícios exclusivos e sem anúncios
    Cifra Club Pro
    Aproveite o Cifra Club com benefícios exclusivos e sem anúncios
    OK