Cifra Club

Escrito Por Deus

Adair Cardoso

Cifra: Principal (violão e guitarra)
tom: C
Solo Intro
E|-------------------------------------------------------------------------------------------
B|--------------------------------------------------------5-6-8-6-5-5-----------------
G|------------------------4-4p5-4---4p5-4---------------------------------7-5--------
D|----7-7-7-7-7-7-7-------------------------7-5-7------------------------------------
A|------------------------------------------------------------------------------------------
E|------------------------------------------------------------------------------------------

E|------------------------------------------------------------------------------------------
B|------------------------------------------------------------------------------------------
G|------------------------4-4p5-4---4p5-4---------------------------------------------
D|----7-7-7-7-7-7-7-------------------------7-5-7------------------------------------
A|------------------------------------------------------------------------------------------
E|------------------------------------------------------------------------------------------


  C                            F
Basta seus olhos olharem no meus
           G        Am
Pro meu sorriso aparecer
   C                             F
Quando o amor ta escrito por Deus
      G         Am
O coração sabe ler

C                       G
Ninguém me fez gostar tanto assim
   Am                   F       C
A ponto de ver você em mim no espelho

C                      G
A força bruta dessa paixão
                 
Deixou também
          F            C G7
O seu coração de joelhos

Ref.
 C
Não adianta negar

O que existe entre nós
                 G
É bem mais que amizade
               Dm
É só você me ligar
                        
Eu já sei pela voz
                 C G7
Quando é de saudade

 C
Vejo você por aí

Disfarçando essa dor
               F
Numa roda de amigos
                     C
Por que ao invés de fugir
                 F
Não assume esse amor
             C
E vem ficar comigo.
00:00 / 00:00
Outros vídeos desta música
Repetir
Outros vídeos desta música
Composição de Maracai / Nilsinho Franco
Colaboração e revisão:
  • Janisley Chelli
111 exibições
    • ½ Tom
    • A
    • Bb
    • B
    • C
    • Db
    • D
    • Eb
    • E
    • F
    • F#
    • G
    • Ab
  • Adicionar à lista

    0 comentários

    Ver todos os comentários

    Conseguiu tocar?

    1 Tocaram 0 Ainda não

    Grave um vídeo tocando Escrito Por Deus e nos envie!

    Entre para oCifra Club PRO

    Tenha acesso a benefícios exclusivos no App e no Site

    • Chega de anúncios

    • Prioridade de compra em lançamentos

    • Mais recursos no app do Afinador

    • Atendimento Prioritário

    • Descontos nos produtos Cifra Club

    • Ajude a produzir mais conteúdo

    00:00 / 00:00

    Cifra Club Pro

    Aproveite o Cifra Club com benefícios exclusivos e sem anúncios
    Cifra Club Pro
    Aproveite o Cifra Club com benefícios exclusivos e sem anúncios
    OK