Cifra Club

Whatya Want From Me

Adam Lambert

Cifra: Principal (violão e guitarra)
Tom: D
Intro 2x: Bm  A  D  G

E|-1O-|-9--|-14-|-7-|
B|-12-|-1O-|-15-|-8-|
G|-11-|-9--|-14-|-7-|   (2x)
D|----|----|----|---|
A|----|----|----|---|
E|----|----|----|---|

Bm            A    D           G
Hey  slow it down whataya want from me
D             G
Whataya want from me
Bm            A D           G
Yeah Im afraid whataya want from me
D             G
Whataya want from me

Bm
There might have been a time
    A
And I would give myself away
D       G             D      G
Oooh once upon a time I didnt give a damn
Bm               A      D               G
But now  here we are so whataya want from me
D              G
Whataya want from me

Refrão:

G     A        Bm      D
Just dont give up Im workin it out
G       A        Bm      D
Please dont give in  I wont let you down
G  A         Bm         D
It messed me up  need a second to breathe
G         A          Bm
Just keep coming around
A            G            A
Hey, whataya want from me
        Bm          D
Whataya want from me
        G          A
Whataya want from me

Bm                A
Yeah  its plain to see (plain to see)
D          G
that baby you are beautiful
D          G
And its nothing wrong with you
(nothing wrong with you)
Bm          A
Its me, Im a freak (yeah)
D         G
But thanks for lovin me
D          G
Cause youre doing it perfectly
(it perfectly)
Bm
There might have been a time
A
When I would let you step away
D G
I wouldnt even try
D G                            A
But I think you could save my life

Refrão:

G     A        Bm      D
Just dont give up Im workin it out
G       A        Bm      D
Please dont give in  I wont let you down
G  A         Bm         D
It messed me up  need a second to breathe
G         A          Bm
Just keep coming around
A            G            A
Hey, whataya want from me
        Bm          D
Whataya want from me
        G          A
Whataya want from me

Solo:

     G     A      Bm     D (2x)
E|------------------------------------------------------------------|
B|--12--10--12------------------------------------------------------|
G|--------------11-----9--11----------------------------------------|
D|----------------------------12-----11-----------------------------|
A|---------------------------------------12--9----------------------|
B|------------------------------------------------------------------|

Bm                    G
Just dont give up on me
A     Bm     D    G    A
Uhhhhhhhhhhhhhhhhhhhhhhh
E|------------------------------------------------------------------|
B|--12--10--12------------------------------------------------------|
G|--------------11-----9--11----------------------------------------|
D|----------------------------12-----11-----------------------------|
A|---------------------------------------12--9----------------------|
B|------------------------------------------------------------------|

Bm
I wont let you down
E|-1O-|-9--|-14-|-7-|
B|-12-|-1O-|-15-|-8-|
G|-11-|-9--|-14-|-7-|
D|----|----|----|---|
A|----|----|----|---|
E|----|----|----|---|
No, i won't let you down...

A
So...
G     A        Bm      D
Just dont give up Im workin it out
G       A        Bm      D
Please dont give in  I wont let you down
G  A         Bm         D
It messed me up  need a second to breathe
G         A          Bm
Just keep coming around
A            G            A
Hey, whataya want from me

G     A        Bm      D
Just dont give up Im workin it out
G       A        Bm      D
Please dont give in  I wont let you down
G  A         Bm         D
It messed me up  need a second to breathe
G         A          Bm
Just keep coming around
A            G            A
Hey, whataya want from me
        Bm          D
Whataya want from me
        G          A
Whataya want from me
        Bm          D
Whataya want from me
G       A         Bm
Whataya want from me
exibições 14.919
Acordes para:
    Composição: Max Martin / P!nk / Shellback Colaboração e revisão:
    • Giulia Nacif
    • Roberto

    0 comentários

    mostrar mais comentários

    Conseguiu tocar?

    9 tocaram 0 ainda não

    Grave um vídeo tocando Whatya Want From Me e mande pra gente!

    00:00 / 00:00
    outros vídeos desta música
    repetir qualidade Automático
    Outros vídeos desta música
    00:00 / 00:00
    Automático
    OK