Cifra Club

Aprenda

Anjo Bom

Adão Negro

Cifra: Principal (violão e guitarra)
tom: G
Intro:
E|--------------------------------------------|
B|--------------------------------------------|
G|---------------------------------------4----|
D|----------------2-----------4--5---5-7---5--|
A|-----2--3---3-5----5---5--7-----------------|
E|-3-5----------------------------------------|

C     D           G
 Tão longe de você
                Em           C
 Mas eu vou voltar, ó meu amor
            D        G    G7
 Não se esqueça de mim
C     D     G              Em         C
 Eu quis ficar perto de você e não sair
        D           G     G7
 Mas a vida quis assim

C     D       G           Em            C
 Não tarda o sol vai iluminar o nosso amor
         D             G     G7
 E a saudade vai ter fim
C      D      G            Em      C
 E eu vou cantar nossa canção de amor
        D           G    G7
 E vai ser tudo de bom

(refrão)
                  C           D
 E a gente vai fazer um carnaval
         G             Em
 Uma alegria amor sem fim
             C            D           G   G7
 Ó meu anjo bom quero você perto de mim

Solo: C  D  G  Em
        (C  D  G  G7)
E|-8/10-8-7--------------------------------------------8/10-8-7--------------10----------------------
B|----------10-8-7-8-10-10/12--------------------10-8-----------10-8-7-8-8/10---12p10---10--10h12---
G|----------------------------7/9-7-7--7---7-9-7---------------------------------------12--12-----12-
D|-----------------------------------------9---------------------------------------------------------
A|---------------------------------------------------------------------------------------------------
E|---------------------------------------------------------------------------------------------------
Composição de Sergio Cassiano
133.080 exibições
    • ½ Tom
    • A
    • Bb
    • B
    • C
    • Db
    • D
    • Eb
    • E
    • F
    • F#
    • G
    • Ab
  • Adicionar à lista

    0 comentários

    Ver todos os comentários

    Conseguiu tocar?

    22 Tocaram 0 Ainda não

    Grave um vídeo tocando Anjo Bom e nos envie!

    00:00 / 00:00
    Outros vídeos desta música
    Repetir Qualidade Automático
    Outros vídeos desta música
    00:00 / 00:00
    Automático

    Cifra Club Pro

    Aproveite o Cifra Club com benefícios exclusivos e sem anúncios
    Cifra Club Pro
    Aproveite o Cifra Club com benefícios exclusivos e sem anúncios
    OK