Cifra Club

Aprenda

Botar Um

Adão Negro

Cifra: Principal (violão e guitarra)
tom: C
                                    (Riff)
Baixo: e|----------------------------------------------------------
       B|----------------------------------------------------------
       G|----------------------------------------------------------
       D|---------------------------------------------------------- {       }  
       A|----------7-5-----------7-5-----------7-5---3-3---3-2----- {Repetir}
       E|-3-5--5-5-----3-5--5-5------3-5--5-5-----5-5---5-5----5--- {       }
                          
                                  (Riff)
             
Guitarra: e|-------------------------------------------------------
          B|-------------------------------------------------------
          G|----------9-7---------9-7---------9-7----5-5-----5-4--- {       } 
          D|-5-7--7-7----5-7--7-7----5-7--7-7----7-7-----7-7-----7- {Repetir}
          A|------------------------------------------------------- {       } 
          E|-------------------------------------------------------            

Am            Dm     Am         Dm
Eu quero botar um,   Vamos botar um,
     Am        Dm       G
me deixe botar um sentimento no seu coração.
Dm                Am    
Você me destrói e não se dá conta você
Dm                        Am
me queimou até a última ponta,
Dm                   Am
você já tem tudo e ainda quer mais 
     Dm                 Am
todo amor do mundo não me satisfaz
REFRÃO 
    Dm                Am         
Sua vida é vazia sem sonho e canção
     Dm              Am          
não gosta de reggae adão nem morrão.
   Dm               Am
Acorda pra vida e venha dançar 
 Dm                       Am
abra sua mente pro que eu vou te falar.

1 TEMPO DE REFRAO NÃO CANTADO.

Am                                   Dm
È de maluco pra maluco meu não ta com nada
Em                         Dm
Tá fumando pedra em copo de água
Am                               Dm
È de maluco pra maluco meu qual é a sua
Em                             Dm
Tá siscando pedra sem olhar pra lua
                  Am...
Sera que você não vê... Não Vê...
Dm                          Am
Que essa atitude acaba com você
                  Dm
Sera que você não vê
      Em
Viver é legal
Dm
Saia dessa vida e viva ao natural

REFRÃO
   
 Final: Repete Fiff da guitarra..

SOLO: inicial e final oitavado
------------12-10--------------12-10-------------12-10--------8-8-------8-7------
-8-10-10-10---------8-10-10-10--------8-10-10-10--------10-10-----10-10-----8/10-
---------------------------------------------------------------------------------
---------------------------------------------------------------------------------
---------------------------------------------------------------------------------
---------------------------------------------------------------------------------
Compositor não encontrado.
Colaboração e revisão:
  • Edson Weigmann
  • Christian
  • nahuel rigo
57.211 exibições
    • ½ Tom
    • A
    • Bb
    • B
    • C
    • Db
    • D
    • Eb
    • E
    • F
    • F#
    • G
    • Ab
  • Adicionar à lista

    0 comentários

    Ver todos os comentários

    Conseguiu tocar?

    1 Tocaram 0 Ainda não

    Grave um vídeo tocando Botar Um e nos envie!

    00:00 / 00:00
    Outros vídeos desta música
    Repetir Qualidade Automático
    Outros vídeos desta música
    00:00 / 00:00
    Automático

    Cifra Club Pro

    Aproveite o Cifra Club com benefícios exclusivos e sem anúncios
    Cifra Club Pro
    Aproveite o Cifra Club com benefícios exclusivos e sem anúncios
    OK