Cifra Club

Aprenda

Louco Louco

Adão Negro

Cifra: Principal (violão e guitarra)
tom: G
|ntro: Em  Am (2x)

Em
e|--8--7--5------5----8--7--5------5-|
B|-----------8------------------8----|
G|-----------------------------------|
D|-----------------------------------|
A|-----------------------------------|
E|-----------------------------------|

Am
e|--8--7--5---------------------|
B|-----------8---5--------------|
G|------------------------------|
D|------------------------------|
A|------------------------------|
E|------------------------------|

Em
Louco louco louco
                              Am*
Eu fiquei foi muito louco sem você

Em
Louco louco louco
                              Am*
Eu fiquei foi muito louco sem você

        Em                    Am
Errei andei (ie ie) de solidão
     Em                            Am
Mil voltas eu ja dei meu bem em vão
           Em             Am
Foi onde andei sem direção
       Em                           Am
Eu perdi meu norte e fiquei sem chão
     Em                      Am
No fio da navalha da razão
            Em                   Am
Foi onde andei (ie ie) sem direção

       C
O que passei sem ter voce amor
            D
Quero esquecer
(porque fiquei foi muito louco)

Em
Louco louco louco
                              Am*
Eu fiquei foi muito louco sem você

Em
Louco louco louco
                              Am*
Eu fiquei foi muito louco sem você


Solo (Em Am)

      Em                            Am
Eu perdi meu norte e fiquei sem chão
    Em                    Am
No fio da navalha da razão
           Em                     Am
Foi onde andei (ie ie) sem direção

       C
O que passei sem ter voce amor
           D
Quero esquecer
(porque fiquei foi muito louco)

Em
Louco louco louco
                              Am*
Eu fiquei foi muito louco sem você

Em
Louco louco louco
                              Am*
Eu fiquei foi muito louco sem você
(veja você) 


Obs: Am* 
Essa parte tem um riff com WahWah

Am*
e|-----5----5----5----5-------|
B|-----5----7----8----7-------|
G|-----5----5----5----5-------|
D|----------------------------|
A|----------------------------|
E|----------------------------|

Em
e|--8--7--5------5----8--7--5------5-|
B|-----------8------------------8----|
G|-----------------------------------|
D|-----------------------------------|
A|-----------------------------------|
E|-----------------------------------|

Am
e|--8--7--5---------------------|
B|-----------8---5--------------|
G|------------------------------|
D|------------------------------|
A|------------------------------|
E|------------------------------|
Composição de Adão Negro
Colaboração e revisão:
  • Rodrigo Neri
15.978 exibições
    • ½ Tom
    • A
    • Bb
    • B
    • C
    • Db
    • D
    • Eb
    • E
    • F
    • F#
    • G
    • Ab
  • Adicionar à lista

    0 comentários

    Ver todos os comentários

    Conseguiu tocar?

    1 Tocaram 0 Ainda não

    Grave um vídeo tocando Louco Louco e nos envie!

    00:00 / 00:00
    Outros vídeos desta música
    Repetir Qualidade Automático
    Outros vídeos desta música
    00:00 / 00:00
    Automático

    Cifra Club Pro

    Aproveite o Cifra Club com benefícios exclusivos e sem anúncios
    Cifra Club Pro
    Aproveite o Cifra Club com benefícios exclusivos e sem anúncios
    OK