Cifra Club

Aprenda

Metal Reggae

Adão Negro

Cifra: Principal (violão e guitarra)
tom: Bb
Riff:
E|-------------------|
B|-------------------|
G|-------------------|
D|-------------------|
A|-6-5-3-5-3h5-------|
E|-------------6-5-3-|

E|---6-5------|-----6-5-------|-------------------|
B|-8----------|---8-----------|-------------------|
G|------7-6-5-|---------7-6-5-|-8-7-5-7-5h7-------|
D|------------|-5-------------|-------------8-7-5-|
A|------------|---------------|-------------------|
E|------------|---------------|-------------------|


Gm Cm
E aí, meu rei?
Qual é, meu chapa?
Onde está a marca
Que te faz igual?
Você se discute,
Mas não é nada,
Nada, nada, nada não
Porque eu nunca fui
À velha Jamaica,
Não conversei com o criador
Gm          F          Cm
Mas trago amor no coração,
F                    Gm
Trago amor nessa canção
Gm Cm
E aí, meu rei?
Não e de graça
Onde está a marca
Que te faz igual?
Você se discute,
Mas não é nada,
Nada, nada, nada não
Porque eu nunca fui
À velha Jamaica,
Não conversei com o criador
Gm          F          Cm
Mas trago amor no coração,
F                     Gm
Trago amor nessa canção
             F           Cm
Quem for humilde para ouvir
          F            Gm
Verá sincero o meu cantar.
Compositor não encontrado.
Colaboração e revisão:
  • Willian Mrques
1.937 exibições
    • ½ Tom
    • A
    • Bb
    • B
    • C
    • Db
    • D
    • Eb
    • E
    • F
    • F#
    • G
    • Ab
  • Adicionar à lista

    0 comentários

    Ver todos os comentários

    Conseguiu tocar?

    0 Tocaram 0 Ainda não

    Grave um vídeo tocando Metal Reggae e nos envie!

    00:00 / 00:00
    Outros vídeos desta música
    Repetir Qualidade Automático
    Outros vídeos desta música
    00:00 / 00:00
    Automático

    Cifra Club Pro

    Aproveite o Cifra Club com benefícios exclusivos e sem anúncios
    Cifra Club Pro
    Aproveite o Cifra Club com benefícios exclusivos e sem anúncios
    OK