Cifra Club

Aprenda

My Sweet Angel

Adão Negro

Cifra: Principal (violão e guitarra)
tom: G
(Riff Inicial)
E|-8/10-8-7--------------------------------------8/10-8-7------------------------|
B|----------8/10-8-7-8-10-----------------7-8-10----------8/10-8-7-8-10/12-12-12-|
G|------------------------7/9-7-7-----7-9----------------------------------------|
D|--------------------------------7-9--------------------------------------------|
A|-------------------------------------------------------------------------------|
E|-------------------------------------------------------------------------------|

C     D     G
So far away
                  Em
But a will be back again some day
C                D         G   G7
Please don't forget about me

C      D     G            Em
I wanted to stay close to you and never leave
C      D             G    G7
But life had other plans

C      D       G                    Em
It won't be long before the sun is shining
          C             D              G   G7
On our love and the loneliness will fade

C      D      G                   Em
Bu just for now I'll sing this song of love for you
C        D                  G    G7
And everything will be alright

(Refrão)
                C                  D
Coz I'm coming back to you it's true
                G              Em
There is no place I'd rather be
                C            D             G    G7
Oh my sweet angel take my hand, belong to me
                   C              D
Coz we are gonna meet again someday
                 G                Em
We'll sing and dance the night away
                C            D             G    G7
Oh my sweet angel take my hand, belong to me

Faz o mesmo Riff do Início:
E|-8/10-8-7--------------------------------------8/10-8-7------------------------|
B|----------8/10-8-7-8-10-----------------7-8-10----------8/10-8-7-8-10/12-12-12-|
G|------------------------7/9-7-7-----7-9----------------------------------------|
D|--------------------------------7-9--------------------------------------------|
A|-------------------------------------------------------------------------------|
E|-------------------------------------------------------------------------------|
Composição de Cory Souza / Duda Spínola / Serginho Nunes
Colaboração e revisão:
  • Willian Mrques
258 exibições
    • ½ Tom
    • A
    • Bb
    • B
    • C
    • Db
    • D
    • Eb
    • E
    • F
    • F#
    • G
    • Ab
  • Adicionar à lista

    0 comentários

    Ver todos os comentários

    Conseguiu tocar?

    0 Tocaram 0 Ainda não

    Grave um vídeo tocando My Sweet Angel e nos envie!

    00:00 / 00:00
    Outros vídeos desta música
    Repetir Qualidade Automático
    Outros vídeos desta música
    00:00 / 00:00
    Automático

    Cifra Club Pro

    Aproveite o Cifra Club com benefícios exclusivos e sem anúncios
    Cifra Club Pro
    Aproveite o Cifra Club com benefícios exclusivos e sem anúncios
    OK