Cifra Club

Aprenda

No Matter (The Sun Of The Lord)

Adão Negro

Cifra: Principal (violão e guitarra)
tom: D
Intro: 2x Bm F#m
E|-5---5---7-----|-7---7---5||-5---5---7--|-7---7---5|
B|---7---7---7---|---7---7--||---7---7----|---7---7--|
G|---------------|----------||------------|----------|
D|---------------|----------||------------|----------|
A|---------------|----------||------------|----------|
E|---------------|----------||------------|----------|

Bm                       F#m
  No matter the pressure,     no matter the pain
Bm                          F#m
   No matter the oppression     them all will be in vain
     Bm
No matter oh no matter what the weak heart say
 F#m
Love I know for sure wil always find a way
    Bm
No matter oh no matter what the weak heart do
  F#m
Love I know for sure wil always remain true

Intro: 2x Bm F#m
E|-5---5---7-----|-7---7---5||-5---5---7--|-7---7---5|
B|---7---7---7---|---7---7--||---7---7----|---7---7--|
G|---------------|----------||------------|----------|
D|---------------|----------||------------|----------|
A|---------------|----------||------------|----------|
E|---------------|----------||------------|----------|

Cause
Bm                        F#m
We stand together in the sun of the lord (2x)
Bm
No, no don't you ever lose no more time
F#m
   We gonna find a new day
  Bm
Now there's no more use for you to cry
F#m
  We gonna find a new day
 Bm
No matter oh no matter what the weak heart say
 F#m
Love I know for sure wil always find a way
   Bm
No matter oh no matter what the weak heart do
  F#m
Love I know for sure wil always remain true
Composição de Marcos Guimarães / Serginho Nunes
Colaboração e revisão:
  • Codinome
615 exibições
    • ½ Tom
    • A
    • Bb
    • B
    • C
    • Db
    • D
    • Eb
    • E
    • F
    • F#
    • G
    • Ab
  • Adicionar à lista

    0 comentários

    Ver todos os comentários

    Conseguiu tocar?

    0 Tocaram 0 Ainda não

    Grave um vídeo tocando No Matter (The Sun Of The Lord) e nos envie!

    00:00 / 00:00
    Outros vídeos desta música
    Repetir Qualidade Automático
    Outros vídeos desta música
    00:00 / 00:00
    Automático

    Cifra Club Pro

    Aproveite o Cifra Club com benefícios exclusivos e sem anúncios
    Cifra Club Pro
    Aproveite o Cifra Club com benefícios exclusivos e sem anúncios
    OK