Daydreamer

Adele

Composição: Adele Adkins
Tom: A
[Intro]

E|-------------------------------------4-------4-------4-------4--------|
B|---5-------5-------5-------5-----------5-------5-------5-------5------|
G|-----6-------6-------6-------6----------------------------------------|
D|-----------------------------------0-----0-0-----0-0-----0-0------0---|
A|-0-----0-0-----0-0------0-0------0------------------------------------|
E|----------------------------------------------------------------------|

[Primeira Parte]

 Daydreamer, sittin’ on the sea, Soaking up the sun... he is a
E|-----------------------------------------------------------|
B|---5-------5-------5-------5-------5-------5---------------|
G|-----6-------6-------6-------6-------6-------6-------------|
D|-----------------------------------------------------------|
A|-0-----0-0-----0-0-----0-0-----0-0-----0-0-----0-0---------|
E|-----------------------------------------------------------|

 Real lover, of makin’ up the past and feeling up his girl like he’s never felt her figure
 Before
E|---4-------4-------4-------4-------------------------------|
B|-----5-------5-------5-------5-----------------------------|
G|-----------------------------------------------------------|
D|-0-----0-0-----0-0-----0-0-----0-0-------------------------|
A|-----------------------------------------------------------|
E|-----------------------------------------------------------|

E|-------------------------------------4-------4-------4-------4--------|
B|---5-------5-------5-------5-----------5-------5-------5-------5------|
G|-----6-------6-------6-------6----------------------------------------|
D|-----------------------------------0-----0-0-----0-0-----0-0------0---|
A|-0-----0-0-----0-0------0-0------0------------------------------------|
E|----------------------------------------------------------------------|
 
 A jaw dropper, Looks good when he when he walks, he is the subject of their talk
E|-----------------------------------------------------------|
B|---5-------5-------5-------5-------5-------5---------------|
G|-----6-------6-------6-------6-------6-------6-------------|
D|-----------------------------------------------------------|
A|-0-----0-0-----0-0-----0-0-----0-0-----0-0-----0-0---------|
E|-----------------------------------------------------------|

He would be

 Hard to chase, but good to catch and he could change the world with his hands behind his back
E|---4-------4-------4-------4-------4-----------------------|
B|-----5-------5-------5-------5-------5---------------------|
G|-----------------------------------------------------------|
D|-0-----0-0-----0-0-----0-0-----0-0-----0-0-----------------|
A|-----------------------------------------------------------|
E|-----------------------------------------------------------|

[Pré-Refrão]

E|-----------------------------------|
B|---5-----------5-------------5-----|
G|-----6-------6---------------6-----|
D|-----------0------ (x4) --0--------|
A|-0-----0-0-------------------0-----|
E|-----------------------------------|

[Refrão]

 You can find him...sittin’ on your
E|---2--------2------2------2------2------|
B|-----3--------3------3------3------3----|
G|-------4--------4------4------4------4--|
D|----------------------------------------|
A|----------------------------------------|
E|-0--------------------------------------|

 Doorstep
E|---4------4------4------4------4------|
B|-----5------5------5------5------5----|
G|-------6------6------6------6------6--|
D|--------------------------------------|
A|-0------------------------------------|
E|--------------------------------------|

 Waiting ..... for
E|---2--------2------2------2------2------|
B|-----3--------3------3------3------3----|
G|-------4--------4------4------4------4--|
D|----------------------------------------|
A|----------------------------------------|
E|-0--------------------------------------|

 A surprise...               and it will
E|---4------4------4------4------4------|
B|-----5------5------5------5------5----|
G|-------6------6------6------6------6--|
D|--------------------------------------|
A|-0------------------------------------|
E|--------------------------------------|

 Feel like he’s been there for...
E|---2--------2------2------2------2------|
B|-----3--------3------3------3------3----|
G|-------4--------4------4------4------4--|
D|----------------------------------------|
A|----------------------------------------|
E|-0--------------------------------------|

 Hours....                          and you
E|---4------4------4------4------4------|
B|-----5------5------5------5------5----|
G|-------6------6------6------6------6--|
D|--------------------------------------|
A|-0------------------------------------|
E|--------------------------------------|

 Can tell that he’ll be there for
E|---2--------2------2------2------2------|
B|-----3--------3------3------3------3----|
G|-------4--------4------4------4------4--|
D|----------------------------------------|
A|----------------------------------------|
E|-0--------------------------------------|

 Life
E|---4------4------4------4------4------|
B|-----5------5------5------5------5----|
G|-------6------6------6------6------6--|
D|--------------------------------------|
A|-0------------------------------------|
E|--------------------------------------|

E|-------------------------------------4-------4-------4-------4--------|
B|---5-------5-------5-------5-----------5-------5-------5-------5------|
G|-----6-------6-------6-------6----------------------------------------|
D|-----------------------------------0-----0-0-----0-0-----0-0------0---|
A|-0-----0-0-----0-0------0-0------0------------------------------------|
E|----------------------------------------------------------------------|

[Segunda Parte]

 Daydreamer, with eyes that make you melt, He lends his coat for shelter plus he’s
E|-----------------------------------------------------------|
B|---5-------5-------5-------5-------5-------5---------------|
G|-----6-------6-------6-------6-------6-------6-------------|
D|-----------------------------------------------------------|
A|-0-----0-0-----0-0-----0-0-----0-0-----0-0-----0-0---------|
E|-----------------------------------------------------------|

  There for you when he shouldn’t be, But he stays all the same, waits for you and then sees
 You
E|---4-------4-------4-------4-------4-----------------------|
B|-----5-------5-------5-------5-------5---------------------|
G|-----------------------------------------------------------|
D|-0-----0-0-----0-0-----0-0-----0-0-----0-0-----------------|
A|-----------------------------------------------------------|
E|-----------------------------------------------------------|

 Through
E|-------------------------------------4-------4-------4-------4--------|
B|---5-------5-------5-------5-----------5-------5-------5-------5------|
G|-----6-------6-------6-------6----------------------------------------|
D|-----------------------------------0-----0-0-----0-0-----0-0------0---|
A|-0-----0-0-----0-0------0-0------0------------------------------------|
E|----------------------------------------------------------------------|

 There’s no way I                       could describe him
E|-------------------------------------4-------4-------4-------4--------|
B|---5-------5-------5-------5-----------5-------5-------5-------5------|
G|-----6-------6-------6-------6----------------------------------------|
D|-----------------------------------0-----0-0-----0-0-----0-0------0---|
A|-0-----0-0-----0-0------0-0------0------------------------------------|
E|----------------------------------------------------------------------|

 All I say is,                        just what I’m hoping for
E|-------------------------------------4----------------------------------|
B|---5-------5-------5-------5-----------5-------5------------------------|
G|-----6-------6-------6-------6------------------------------------------|
D|-----------------------------------0-----0-0-----0-0--------------------|
A|-0-----0-0-----0-0------0-0------0--------------------------------------|
E|------------------------------------------------------------------------|

[Pré-Refrão]

E|-----------------------------------|
B|---5-----------5-------------5-----|
G|-----6-------6---------------6-----|
D|-----------0------ (x4) --0--------| 
A|-0-----0-0-------------------0-----|
E|-----------------------------------|

[Refrão]

 But I will find him...sittin’ on my
E|---2--------2------2------2------2------|
B|-----3--------3------3------3------3----|
G|-------4--------4------4------4------4--|
D|----------------------------------------|
A|----------------------------------------|
E|-0--------------------------------------|

 Doorstep
E|---4------4------4------4------4------|
B|-----5------5------5------5------5----|
G|-------6------6------6------6------6--|
D|--------------------------------------|
A|-0------------------------------------|
E|--------------------------------------|

 Waiting ..... for
E|---2--------2------2------2------2------|
B|-----3--------3------3------3------3----|
G|-------4--------4------4------4------4--|
D|----------------------------------------|
A|----------------------------------------|
E|-0--------------------------------------|

 A surprise...               and it will
E|---4------4------4------4------4------|
B|-----5------5------5------5------5----|
G|-------6------6------6------6------6--|
D|--------------------------------------|
A|-0------------------------------------|
E|--------------------------------------|

 Feel like he’s been there for
E|---2--------2------2------2------2------|
B|-----3--------3------3------3------3----|
G|-------4--------4------4------4------4--|
D|----------------------------------------|
A|----------------------------------------|
E|-0--------------------------------------|

 Hours....                          and I
E|---4------4------4------4------4------|
B|-----5------5------5------5------5----|
G|-------6------6------6------6------6--|
D|--------------------------------------|
A|-0------------------------------------|
E|--------------------------------------|

 Can tell that he’ll be there for
E|---2--------2------2------2------2------|
B|-----3--------3------3------3------3----|
G|-------4--------4------4------4------4--|
D|----------------------------------------|
A|----------------------------------------|
E|-0--------------------------------------|

 Life                                and I
E|---4------4------4------4------4------|
B|-----5------5------5------5------5----|
G|-------6------6------6------6------6--|
D|--------------------------------------|
A|-0------------------------------------|
E|--------------------------------------|

 Can tell that  he’ll..be..there... for
E|---2--------2------2------2------2------|
B|-----3--------3------3------3------3----|
G|-------4--------4------4------4------4--|
D|----------------------------------------|
A|----------------------------------------|
E|-0--------------------------------------|

 Life
E|--4--------------4----------4---------|
B|----5--------------5------5-----------|
G|------6--------6--------6-------------|
D|--------0----0------------------------|
A|--0-------0---------------------------|
E|--------------------------------------|
Página 1 / 1

Letras e título
Acordes e artista

resetar configurações
OK