Cifra Club

Aprenda

Trem das Onze

Adoniran Barbosa

Cifra: Completa (violão e guitarra)
tom: A#
Intro:

E|----------------------|
B|----------------------|
G|----------------------|
D|----------------------|
A|---0-2-4---0-2-4------|
E|----------------------|

E|----------------------|
B|--15-13-12-13-10------|
G|-----------------9----|
D|----------------------|
A|----------------------|
E|----------------------|

E|--------------------------------------------------|
B|-10-12-13-10-13----10-12-13-10-12----9-10-12-9-10-|
G|--------------------------------------------------|
D|--------------------------------------------------|
A|--------------------------------------------------|
E|--------------------------------------------------|

Dm      E7           Am                       F
Quaz,  Quaz,  Quaz Quaz Quaz Quaz,   Pascarigudum
         E7            Am    E7
Pascarigudum, Pascarigudum...

         Am
Não posso ficar
Nem mais um minuto com você
Sinto muito amor
             E7  A7
Mas não pode ser
  Dm  D#º  Am
Moro em Jaçanã
                  F
Se eu perder esse trem
          E7
Que sai agora às onze horas
 Dm    E7     Am
Só amanhã de manhã
       A7
Além disso mulher
             Dm
Tem outra coisa
       B7
Minha mãe não dorme
                  E7  A7
Enquanto eu não chegar
 Dm   D#º   Am
Sou filho único
 F           E7          Am
Tenho minha casa pra olhar
Dm        E       Am                          F
Faz,      faz,  faz faz faz faz,   faz carinho dumdum,
                E7                   Am                  Am
Faz carinho dumdum, faz carim dumdum..........Faz   dum dum
Não posso ficar
Composição de Adoniran Barbosa
Colaboração e revisão:
  • Lauro Cockell
12.723 exibições
    • ½ Tom
    • A
    • Bb
    • B
    • C
    • Db
    • D
    • Eb
    • E
    • F
    • F#
    • G
    • Ab
  • Adicionar à lista

    0 comentários

    Ver todos os comentários
    00:00 / 00:00
    outros vídeos desta música
    repetir qualidade Automático
    Outros vídeos desta música
    00:00 / 00:00
    Automático

    Cifra Club Pro

    Aproveite o Cifra Club com benefícios exclusivos e sem anúncios
    Cifra Club Pro
    Aproveite o Cifra Club com benefícios exclusivos e sem anúncios
    OK