Cifra Club

Aprenda

Arrebatamento

Adoração Central

Cifra: Principal (violão e guitarra)
Tom: A
Intro 2x: A9 F#m7 D D

A9                            F#m7
Um dia ouvirei o meu nome chamar                                                                                            
     E                                D
E logo em teus braços irei me encontrar
A9                      F#m7
Santificado meu corpo será
       E                         D
Em ruas de ouro eu vou caminhar
Refrão:
A9                             E
E com os anjos pra sempre eu cantarei
F#m7             D
Aleluia!           Aleluia!
A9                         E
Glória ao rei, tua noiva te adorará
F#m7             D
Aleluia!           Aleluia!
Intro: (2x)
A9                               F#m7
Vestido de branco com a multidão
E                         D
De toda lingua, tribo e nação
A9                         F#m7
Diante do trono eu vou me lançar
E                         D
Maravilhado por te encontrar

Refrão: (2x)
A9                             E                                                                                                                           E com os anjos pra sempre eu cantarei
F#m7             D
Aleluia!           Aleluia!
A9                         E
Glória ao rei, tua noiva te adorará
F#m7             D
Aleluia!           Aleluia!

Solo: (2x)
Base A9 F#m D D (2x)

E|--------------------------------------------------------------------------------------
B|-----------------------17-17-17-17-17-17-17----------------------17-17-17-17-17-17-17-
G|-14-14-14-14-14-14-14-----------------------14-14-14-14-14-14-14----------------------
D|--------------------------------------------------------------------------------------
A|--------------------------------------------------------------------------------------
E|--------------------------------------------------------------------------------------

E|-------------------------------------17-17-17-16-16-16-14-14-14-------------
B|----------------------------------------------------------------17-17-17----
G|-14-14-14-13-13-13----------------------------------------------------------
D|-------------------16-16-16-14-14-14----------------------------------------
A|----------------------------------------------------------------------------
E|----------------------------------------------------------------------------

Interlúdio: (2x)
Bm                    F#m7
Hosaaaaaaaaaaana, 
    D                          E
O rei do universo enfim voltará 
Bm                    F#m7
Hosaaaaaaaaaaana, 
              D                     E
Com as vozes unidas iremos louvar

Refrão: 
A9                             E
E com os anjos pra sempre eu cantarei
F#m7             D
Aleluia!           Aleluia!
A9                         E
Glória ao rei, tua noiva te adorará
F#m7             D    E
Aleluia!           Aleluia!

Sobe 1 tom: (2x)
B9                            F#
E com os anjos pra sempre eu cantarei
G#m              E
Aleluia!           Aleluia!
B9                        F#
Glória ao rei, tua noiva te adorará
G#m              E
Aleluia!           Aleluia!
Colaboração e revisão:
  • Ozéias Silva
14.461 exibições
    • ½ Tom
    • A
    • Bb
    • B
    • C
    • Db
    • D
    • Eb
    • E
    • F
    • F#
    • G
    • Ab
  • Adicionar à lista

    0 comentários

    Mostrar mais comentários

    Conseguiu tocar?

    1 Tocaram 0 Ainda não

    Grave um vídeo tocando Arrebatamento e mande pra gente!

    00:00 / 00:00
    outros vídeos desta música
    repetir qualidade Automático
    Outros vídeos desta música
    00:00 / 00:00
    Automático

    Cifra Club Pro

    Aproveite o Cifra Club com benefícios exclusivos e sem anúncios
    7 dias grátis
    Cifra Club Pro
    Aproveite o Cifra Club com benefícios exclusivos e sem anúncios
    7 dias grátis
    OK