Cifra Club

Foi Por Amor

Adoração e Adoradores

Cifra: Principal (violão e guitarra)
Tom: B
Intro 2x: B  E9  Abm  F#

Riff Into (começa na 2 vez da Intro)

E|---------------|-------------|
B|---------------|-------------|
G|--6-8-6-8-6-8--|--6-8-6-8-6--|
D|---------------|-------------|
A|---------------|-------------|
E|---------------|-------------|

B         E9
 Foi por amor
      Abm          F#
 Que Jesus se entregou
       B           E9
 Numa cruz Por nos amar
      Abm              F#
 Do pecado ele nos libertou
     B        E9
 Não há no mundo
 Abm       F#         E9         F#
 Nada que vence esse amoooooooooor

Intro 2x: B E9 Abm F#

Riff Into 2

E|---------------|------------|-----------------|--------------|
B|---------------|------------|-----------------|--------------|
G|--6-8-6-8-6-8--|-6-8-6-8-6--|-4-6-6-8-6-8-6-8-|--6-8-9---8-6-|
D|---------------|------------|-----------------|--------9-----|
A|---------------|------------|-----------------|--------------|
E|---------------|------------|-----------------|--------------|

B                      E9
 Eu sei é tão difícil entender
 B           E9            Abm
 A morte de Jesus a sua doooooor
F#                  E9
 O seu sofreeeeeeeeeeer
                      F#
 Tudo o que ele passou por mim e por vocÊ

Repete 2x na segunda vez faz a base para o solo da guitarra
B                 E9              B
 A morte tentou vencer o amor de Jesus
             E9
 Mas ele venceu e hoje vive
Abm           F#              E9
 E ele nos ensinou que tudo passará
             E9            F#
 E o que realmente irá contar
          E9     F#
 É o amooooooooooor
B         E9
 Foi por amor
     Abm          F#
 Que Jesus se entregou
       B           E9
 Numa cruz Por nos amar
      Abm              F#
 Do pecado ele nos libertou
     B       E9
 Não há no mundo
 Abm       F#        E9         F#
 Nada que vence esse amoooooooooor

Solo 2x: E9  Abm  F#

Riff Solo

E|--------------------------------------------14------------------|-----------------------------------|--9/10------
B|-12-14-14b16~-16pb14p12h14b16~--/12-14-14b16~-16pb14p12h14b16~--|--12/11----------------------------|--7/8-------
G|----------------------------------------------------------------|--------13-11------11-13-13-11/9/8-|--8/9/6/3/6-
D|----------------------------------------------------------------|---------------13------------------|-----------
A|----------------------------------------------------------------|-----------------------------------|-----------
E|----------------------------------------------------------------|-----------------------------------|-----------

E|-----------------|
B|--12-11-9-7-7/9--|
G|-----------------|
D|--11-11-9-8-8----|
A|-----------------|
E|-----------------|

Repete 3x

E9     Abm      F#
 Nada pode vencer teu sacrifício na cruz
E9     Abm      F#
 Nada pode vencer o teu amor meu Jesus
E9     Abm      F#              (E9 F#)
 Nada pode vencer teu sacrifício Jesus.

B         E9
 Foi por amor
      Abm          F#
 Que Jesus se entregou
       B           E9
 Numa cruz Por nos amar
      Abm              F#
 Do pecado ele nos libertou
     B        E9
 Não há no mundo
 Abm       F#         E9         F#
 Nada que vence esse amoooooooooor

Final: 2x (E9 F#) E9

Riff final da guitarra
exibições 102.660
Acordes para:

    0 comentários

    mostrar mais comentários

    Conseguiu tocar?

    12 tocaram 0 ainda não

    Grave um vídeo tocando Foi Por Amor e mande pra gente!

    00:00 / 00:00
    outros vídeos desta música
    repetir qualidade Automático
    Outros vídeos desta música
    00:00 / 00:00
    Automático
    OK