Cifra Club

Tu És Bom

Adoração e Adoradores

Cifra: Principal (violão e guitarra)
exibições 529.121
Tom: Em
[Intro] E  E/D#  E/D  E/C#

    E
Senhor, Tu és bom
    E/D#               E/D     E/C#
Tua misericórdia é pra sempre
 E
Senhor, Tu és bom
    E/D#               E/D     E/C#
Tua misericórdia é pra sempre

A                 B9
Todos os povos te exaltarão
C9         D9
De geração em geração

     E     E/D#  E/D       E/C#
Te adorarei,      aleluia! Aleluia!
     E     E/D#           E/D  E/C#
Te adorarei, por tudo que és
     E     E/D#  E/D       E/C#
Te adorarei,      aleluia! Aleluia!
     E     E/D#           C9  D9  
Te adorarei, por tudo que és
            
Deus é bom 
          
( E  G  A ) 
( E  D  C# )

       E     G     A9
Deus é bom o tempo todo
        E      D9       C#9
O tempo todo,  Deus é bom  

[Riff 1]     

                                                     H.A.
E|-------------------------------------------------------------------------|
B|-15p12-14p12-------------------------------------------------------------|
G|-------------14p12-14b16r14p12-14p12-14p12-14p12----12-------------------|
D|-------------------------------------------------14----14hp12h14~--------|
A|-------------------------------------------------------------------------|
E|-------------------------------------------------------------------------|

[Riff 2]

E|------5-----7-----9------11----12-12-0-----------------------------------|
B|-----------------------------------------10-----10-----------------------|
G|-4/6----6/7---7/9---9/11----11---------9----9-7---7\6--------------------|
D|-------------------------------------------------------------------------|
A|-------------------------------------------------------------------------|
E|-------------------------------------------------------------------------|

[Riff 3]

E|-----14h15p14--------------------------------------15--------------------|
B|---x----------15-12----12-----------------12-15b17----17r15p12h15~-------|
G|-x------------------14----14p12----12h14---------------------------------|
D|--------------------------------14---------------------------------------|
A|-------------------------------------------------------------------------|
E|-------------------------------------------------------------------------|

[Riff 4]

E|-----------------------------------------------------------------------------------------------------12h14h15/17b19r17p15-----|
B|--------------------------------------------------------------------------12h13h15----------12h13h15--------------------------|
G|----------------------------------------------11h12h14----------11h12h14-----------11h12h14-----------------------------------|
D|-------------------11h12h14----------11h12h14----------11h12h14---------------------------------------------------------------|
A|---------11h12h14-----------11h12h14------------------------------------------------------------------------------------------|
E|-0-12h14----------------------------------------------------------------------------------------------------------------------|

E|--------15----------------------------------------------------------------|
B|--15b17----15b17r15~------------------------------------------------------|
G|--------------------------------------------------------------------------|
D|--------------------------------------------------------------------------|
A|--------------------------------------------------------------------------|
E|--------------------------------------------------------------------------|
 
( C#5  D5  C#5  D5 )
( C#5  D5  C#5  D5  E  E )
( C#5  D5  C#5  D5 )
( C#5  D5  C#5  D5  G  E )

[Solo] E5  F#5  G5  A5

E|----------------------------------------------------------------------------|
B|--14b15r14p12h14~---15p12----------------------------------------12~--------|
G|--------------------------14p12----12-14b16r14-12-14-12----------12~--------|
D|--------------------------------14----------------------14-12-14------------|
A|----------------------------------------------------------------------------|
E|----------------------------------------------------------------------------|

E|----------------------------------------------------------------------------|
B|----------------------------------------------------------------------------|
G|----------------------------------------------------------------------------|
D|-11-11h12p11----------------------------------------------------------------|
A|-------------12-10\---------------------------------------------------------|
E|----------------------------------------------------------------------------|

E|-5p0-3p0--------------------------------------------------------------------|
B|---------5p0-3/5-3p0-2p0---------------------3-5-5--------------------------|
G|-------------------------2p0-----2p0-----2/4--------------------------------|
D|-----------------------------2p0-----2p0------------------------------------|
A|----------------------------------------------------------------------------|
E|----------------------------------------------------------------------------|

E|----------------------------------------------------------------------------|
B|-12-12-------------------14-12----------------------------------------------|
G|-12-12-------------------14-12----------------------------------------------|
D|-------14-14p12----12-14--------14-14p12----12h14~~-------------------------|
A|----------------14-----------------------14---------------------------------|
E|----------------------------------------------------------------------------|
   
E|-0---/0---/0--/0------------------------------------------------------------|
B|-5---/7---/8--/10-----------------------------------------------------------|
G|----------------------------------------------------------------------------|
D|----------------------------------------------------------------------------|
A|----------------------------------------------------------------------------|
E|----------------------------------------------------------------------------|

Te adorarei aleluia! Aleluia!                      
Te adorarei por tudo que és

     E     E/D#  E/D      E/C#
Te adorarei,     aleluia! Aleluia!
     E     E/D#           C9  D9
Te adorarei, por tudo que és           

        E9
Deus é bom

( B  G  A )
( E  G  A )
( B  D  C#  A )
 
     E     E/D#  E/D      E/C#
Te adorarei,     aleluia! Aleluia!
     E     E/D#           C9  D9  
Te adorarei, por tudo que és

0 comentários

mostrar mais comentários

Conseguiu tocar?

14 tocaram 7 ainda não

Grave um vídeo tocando Tu És Bom e mande pra gente!

00:00 / 00:00
outros vídeos desta música
repetir qualidade Automático
Outros vídeos desta música
00:00 / 00:00
Automático
OK