Cifra Club

Aprenda

Vim Para Adorar-Te

Adoração e Adoradores

Cifra: Solo (violão e guitarra)
Tom: A
    Luz do      Mundo   vieste      a    Terra       Pra que eu pudesse  Te   Ver
E|-------------------------------------------------------------------|
B|-------------------------------------------------------------------|
G|-13-13-14---------13-14--14-13------------13-13-14---------13------|
D|-----------16-16----------------16-14---------------16-16------14--|
A|-------------------------------------------------------------------|
E|-------------------------------------------------------------------|

   Tua     beleza       me leva a adorar-te          Quero  contigo      viver
E|-------------------------------------------------------------------|
B|-------------------------------------------------------------------|
G|-13-13-14---------13-14--14-13------------13-13-14---------13------|
D|-----------16-16----------------16-14---------------16-16------14--|
A|-------------------------------------------------------------------|
E|-------------------------------------------------------------------|

   Vim  para     adorar-te        Vim para   prostrar-me
E|--------------------------------------------------|
B|--------------------------------------------------|
G|-14-13-13------13-13------14-13-13----------------|
D|-----------16-----------------------16-16-16------|
A|--------------------------------------------------|
E|--------------------------------------------------|

    Vim para      dizer  que és meu  Deus
E|----------------------------------|
B|----------------------------------|
G|-14-13-13------13--13-13-16-------|
D|-----------16----------------14---|
A|----------------------------------|
E|----------------------------------|

És totalmente   amável           Totalmente        Digno
E|--------------------------------------------------|
B|--------------------------------------------------|
G|-14-13-13------13-13------14-13-13----------------|
D|-----------16-----------------------16--16-16-----|
A|--------------------------------------------------|
E|--------------------------------------------------|

   Tão  maravilhoso          para    mim
E|----------------------------------|
B|----------------------------------|
G|-14-13-13------13-13--13-16-------|
D|-----------16----------------14---|
A|----------------------------------|
E|----------------------------------|

Eterno Rei, exaltado nas alturas
Tocar igual o início Luz do Mundo

 Eu Nunca  saberei    o     preço         dos meus  pecados  lá  na   cruz
E|-------------------------------------------------------------------------|
B|-------------------------------------------------------------------------|
G|------------16-14-------------------------------------16---14------------|
D|14-16-16-18-------18-16-14--------------14--16---16-18---------18----14--|
A|-------------------------------------------------------------------------|
E|-------------------------------------------------------------------------|
Composição de Tim Hughes
Colaboração e revisão:
  • Larissa Rebeca
  • Eduardo Nardi
17.413 exibições
    • ½ Tom
    • A
    • Bb
    • B
    • C
    • Db
    • D
    • Eb
    • E
    • F
    • F#
    • G
    • Ab
  • Adicionar à lista

    0 comentários

    Mostrar mais comentários
    00:00 / 00:00
    outros vídeos desta música
    repetir qualidade Automático
    Outros vídeos desta música
    00:00 / 00:00
    Automático

    Cifra Club Pro

    Aproveite o Cifra Club com benefícios exclusivos e sem anúncios
    7 dias grátis
    Cifra Club Pro
    Aproveite o Cifra Club com benefícios exclusivos e sem anúncios
    7 dias grátis
    OK