Cifra Club

Fico Assim Sem Você

Adriana Calcanhotto

Tab de baixo: Principal
exibições 7.142
G|----------------------| 
D|----------------------| 
A|-------------0-----2--|
E|-0-----4--------------|

G|----------------------|
D|----------------------|
A|------------0------2--|
E|-0-----4--------------|

G|----------------------|
D|----------------------|
A|-0-----2------------4-|
E|-------------4--------|

G|----------------------| 
D|----------------------| 
A|-0-----2-----------4--| 
E|-------------4--------|
Colaboração e revisão:
  • Vilson Silva

0 comentários

    mostrar mais comentários

    Conseguiu tocar?

    1tocaram0ainda não

    Grave um vídeo tocando Fico Assim Sem Você e mande pra gente!

    00:00 / 00:00
    outros vídeos desta música
    repetirqualidadeautomática
    Outro vídeos desta música
      00:00 / 00:00
      automática
      OK