Cifra Club

Aprenda

Erguem-se Muros Em Volta

Adriano Correia de Oliveira

Cifra: Principal (violão e guitarra)
tom: G
Original: Transpositor na 3ª posição 

    Em                        B7                          Em 
E|-------0------3-----2-------------2-----3------2----------- 
B|-----0---0------0-----0---------0---0------0-----0--------- 
G|---0-------0------0-----0-----2-------2------2-----2------- 
D|----------------------------------------------------------- 
A|----------------------------2-----------2------------------ 
E|-0--------------------------------------------------------- 

{Em Erguem-se muros em volta 
do{Am corpo quando nos B7 damos 
{Em amor semeia a {D revolta 
{Am que nesse instante ca{Em lamos 

Em D Am Em (2X)   
La ra ra...  

Am B7 Em 

Semeia a revolta e o dia  
cobrir-se-á de navios  
há que fazer-nos ao mar 
antes que sequem os rios{B7  

Em D Am Em (1X)   
La ra ra...  

   Em                        B7               
E|-------0------3-----2-------------2----- 
B|-----0---0------0-----0---------0---0--- 
G|---0-------0------0-----0-----2-------2- 
D|---------------------------------------- 
A|--------------2-------------2----------- 
E|-0-------------------------------------- Gdim Edim D#dim Em 

{Em Secos os rios a noite 
{Am tem os caminhos B7 fechados  
{Em Há que fazer-nos ao {D mar 
{Am ou ficaremos B7 cercados 

Em D Am Em (2X)   
Na na na...  

{Em Amor semeia a revolta 
{Am antes que sequem os B7rios...Em
Colaboração e revisão:
  • Thiago Ferreira
1.062 exibições
    • ½ Tom
    • A
    • Bb
    • B
    • C
    • Db
    • D
    • Eb
    • E
    • F
    • F#
    • G
    • Ab
  • Adicionar à lista

    0 comentários

    Ver todos os comentários

    Conseguiu tocar?

    0 Tocaram 0 Ainda não

    Grave um vídeo tocando Erguem-se Muros Em Volta e nos envie!

    00:00 / 00:00
    outros vídeos desta música
    repetir qualidade Automático
    Outros vídeos desta música
    00:00 / 00:00
    Automático

    Cifra Club Pro

    Aproveite o Cifra Club com benefícios exclusivos e sem anúncios
    Cifra Club Pro
    Aproveite o Cifra Club com benefícios exclusivos e sem anúncios
    OK