Notificações Amigos pendentes

      Aerosmith

      Baby Please Don't Go

      20.161 exibições
      Tom: C
      Intro:
      
      
      e|-------------15----------|6x
      B|-------------15----------|                                            
      G|-------912------12/9-----|
      D|-------912------12/9-----|
      A|-7~----------------------|
      E|-0~----------------------|
      
      
      Gtr I e II (lick1)
      
      e|----------------------------------------------------------------------------------------|
      B|---------------8-----------------8------------------------------------------------------|
      G|--9-9~~--9-7-9---7---------9-7-9---9-7-9-9~-9-7---7-------------------------------------|
      D|--------------------9-8~------------------------8p7---8-7-5----5-7-5--------------------|
      A|-------------------------------------------------------------7-------7-7--5-7-----------|
      E|------------------------------------------------------------------------------7-5-3p-0--|
      
      
      Gtr I
      
      e|--------------------------|--------------------------|--------------------------|--------------------------|
      B|--------------------------|--------------------------|--------------------------|--------------------------|
      G|------7-------------------|------7------9-9-9-9------|------7-------------------|------7------9-9-9-9------|
      D|------7-------------------|------7------9-9-9-9------|------7-------------------|------7------9-9-9-9------|
      A|------5-------------------|------5------7-7-7-7------|------5-------------------|------5------7-7-7-7------|
      E|0-------/---0------------|--------/---0------------|--------/---0------------|--------/---0------------|
                     |-----let ring---          |-----let ring---          |-----let ring---         |-----let ring---
      
      Gtr II                        
      
        |----------------------palm mute--------------------|
      e|--------------------------|--------------------------|
      B|--------------------------|--------------------------|
      G|--------------------------|--------------------------|
      D|--------------------------|--------------------------|
      A|--------------------------|--------------------------|
      E|00200020002000200020002000|20002000200020002000200020|  -> riff1 
      
      
      Verso 1:
        
      Gtr I
      
      e|-----------------------------|-------------------------------|
      B|-----------------------------|-------------------------------|
      G|------------------7-7-7--7---|-------------7h9p7-------------|
      D|hold--------------7-7-7--7---|------------------9-7h9p7--9/--|
      A|hold--------------9-9-9--9---|-------------------------7-7/--|
      E|hold-------------------------|-------------------------------|
      
      
      GTr II (riff2)
      
      e|-----------------------------|-------------------------------|
      B|-----------------------------|-------------------------------|
      G|------------------7-7-7--7/--|-------------7---7---7-----7/--|
      D|------------------7-7-7--7/--|-------------7---7---7-----7/--|
      A|------------------9-9-9--9/--|-------------9---9---9-----9/--|
      E|-----------------------------|-------------------------------|
      
       BABY PLEA' DON'T GO       BABY PLEA' DON'T GO
      
       BABY PLEASE DON'T GO
       DOWN TO NEW ORLEANS
       YOU KNOW I LOVE YOU SO
       BABY PLEASE DON'T GO
      
      Gtr I
      
      
      e|----12/---0---12/---0-----|2x
      B|----12/---0---12/---------|
      G|--------------------------|
      D|--------------------------|
      A|--------------------------|
      E|--------------------------|
      
      
      Gtr II = riff1
      
      Verso 2
      
      Gtr I                              Gtr II = riff2
      
      e|-----------------------------|------------------------------------------------|
      B|-----------------------------|------------------------------------------------|
      G|-----------------------------|-----------------9p7----------------------------|
      D|---------------------7bf-----|---------------------9-9--7-9p7-8p7-------9/----|
      A|-----------------------------|------------------------------------10-7--7/----|
      E|-----------------------------|------------------------------------------------|
      
       WELL YOUR MAN DONE GONE   WELL YOUR MAN DONE GONE
       YEAH YOUR MAN DONE GONE
       DOWN TA COUNTY FARM
      
      e|-----------0--------------|
      B|-----------0--------------|
      G|-----------0--------------|
      D|--------------------------|
      A|--------------------------|
      E|--------------------------|
      
       HE GOT THE SCHACKLES ON
       BABY PLEASE DON'T GO AWAY
      
      Gtr I
      
      
      e|----12/---0---12/---0-----|2x
      B|----12/---0---12/---0-----|
      G|--------------------------|
      D|--------------------------|
      A|--------------------------|
      E|--------------------------|
      
      
      Gtr II = riff1
      
      verso 3
      
      Gtr I                         a.h.     Gtr II = riff2
      
      e|------------------------------------|------------------------------------------------|
      B|------------------------------------|----------------------------9/------------------|
      G|----------------9p7-----------------|-----------------9p7--------9/------------------|
      D|----------------9p7--9p8p7--9/------|-----------------9p7-9p8p7-----9/---------------|
      A|--------------------------7-7/------|--------------------------7----7/---------------|
      E|------------------------------------|------------------------------------------------|
      
      BEFORE I BE THE DOG                    BEFORE I BE THE DOG   YEAH
      BEFORE BEIN' THE DOG
      GET YOU'RE WEIGHT OUT HERE
      I'LL MAKE YA WALK IT'LL OFF
      BABY PLEASE DON'T GO AWAY
      
      Well all right
      
      Gtr I e II (lick1)
      
      E G A C E7
      
      oow
      BABY PLEASE DON'T GO
      BABY PLEASE DON'T GO
      BABY PLEASE DON'T GO
      DOWN TO NEW ORLEANS
      YOU KNOW I LOVE YOU SO 
      
                                |-4x-|   
      e|--------------------------------|
      B|--------------------------------|
      G|--------------------7/--7-7-7---|
      D|--------------------7/--7-7-7---|
      A|--------------------9/--9-9-9---|
      E|--------------------------------|
      
      BABY PLEASE DON'T GO
      
      
                        |palm mute|
      e|--------------------------------|5x
      B|---------------------------7----|
      G|------------------7-7-7-7--7----|
      D|------------------7-7-7-7--7----|
      A|------------------9-9-9-9-------|
      E|--------------------------------|
      
      Now I feel right now
        My baby's leavin'
        On that midnight train
        And i'm dyin' dyin'
        Dyin' dyin' dyin'
        I'm dyin' i'm dyin' I'm dyin'
      
      e|-----------------------12-------|4x
      B|-----------------------12-------|
      G|-----------------------13-------|
      D|-----------------------14-------|
      A|-----------------------14-------|
      E|-----------------0-----12-------|
      I'm dy-dy-dy-dy-ri-right now
      
                         right now
                         right now
                         right now
      
      Uma oitava acima:
      Gtr II
      E5 G5 A5 C5
      
      
      Gtr I                                                                       let ring------------------------|
            e|------------------------------------------------------------------|----------------------------------|
            B|---15bfp12-15bfp12-15bfp12-15bfp12-15bfp12-15bfp12-15bfp12-15bfp12|----------------------------------|
            G|------------------------------------------------------------------|----------------------------------|
            D|------------------------------------------------------------------|----------------------------------|
            A|------------------------------------------------------------------|----------------------------------|
            E|------------------------------------------------------------------|-0---------------0----------------|
      
            
      
      e|17fbr-17fbr-17fbr-17fbr-17fbr-17fbr-17fbr-17fbr-17fbr-17fbr|17---17-17-17-17-17-17-17-17-17-17-17-20-22fb-22fb--|
      B|-----------------------------------------------------------|----------------------------------------------------|
      G|-----------------------------------------------------------|----------------------------------------------------|
      D|-----------------------------------------------------------|----------------------------------------------------|
      A|-----------------------------------------------------------|----------------------------------------------------|
      E|-----------------------------------------------------------|----------------------------------------------------|
      
      
      Gtr I
      
      
      e|----12/---0---12/---0-----|4x
      B|----12/---0---12/---0-----|
      G|--------------------------|
      D|--------------------------|
      A|--------------------------|
      E|--------------------------|
      
      
      Gtr II = riff1
      
      
      Gtr I               Gtr II = riff1
      
      e|----------------------|---------------------15p14p12-15p14p12-15p14p12-15p14p12-15p14p12-15p14p12-15p14p12-15p14p12-|
      B|----------------------|---------------------------------------------------------------------------------------------|
      G|----------------------|---------------------------------------------------------------------------------------------|
      D|------------------7fb-|---------------------------------------------------------------------------------------------|
      A|----------------------|---------------------------------------------------------------------------------------------|
      E|----------------------|---------------------------------------------------------------------------------------------|
      
      BABY PLEASE DON'T GO      BABY PLEASE DON'T GO                                                   
      
      
      e|-----15-----12----12-----------------------------------------------------------------------------------------------|
      B|----------------------15---12-15--15--15b--15p12-------------------------------------------------------------------|
      G|-------------------------------------------------------14---14--14-12-1412- 14brp12--------------------------------|
      D|---------------------------------------------------------------------------------------14/-------------------------|
      A|-------------------------------------------------------------------------------------------------------------------|
      E|-------------------------------------------------------------------------------------------------------------------|
      
        BABY PLEASE DON'T GO  DOWN TA NEW ORLEANS  YOU KNOW I  LOVE YOU SO    BABY  PLEA DON'T GO AWAY
      
      
      e|--------------------------------|4x
      B|--------------------------------|
      G|--7-5-5--7--5--7----------------|
      D|--7-5-5--7--5--7----------------|
      A|--------------------------------|
      E|--------------------------------|
      
      
      YEAH
        yeah
      YEAH
        yeah
      WELL ALRIGHT ALRIGHT ALRIGHT
      
      Gtr I
      
      e|----------------------------------------------------------------------------------------|
      B|---------------8-----------------8------------------------------------------------------|
      G|--9-9~~--9-7-9---7---------9-7-9---9-7-9-9~-9-7---7-------------------------------------|
      D|--------------------9-8~------------------------8p7---8-7-5----5-7-5--------------------|
      A|-------------------------------------------------------------7-------7-7--5-7-----------|
      E|------------------------------------------------------------------------------7-5-3p-0--|
      
      
      Gtr II
      
      e|-------------------15--------------------------15--------------------------------------------------------------------|
      B|-17-17~~------15/17--1715----------------15/17--17-15-17-17~-1715-----15---------------------------------------------|
      G|--------15/16--------------16-15~--15/16---------------------------15p14--1514-12--12-14-12--------------------------|
      D|----------------------------------------------------------------------------------14--------14-14--12-14-------------|
      A|---------------------------------------------------------------------------------------------------------14-12-------|
      E|--------------------------------------------------------------------------------------------------------------15p-0--|
      
      
      
        Composição: Big Joe WilliamsColaboração e revisão:
        • rickybigeli
        • Moita

        Comentários 0

        140 .
        140 cancelar

        conseguiu tocar?

        covers

        Grave um vídeo tocando Baby Please Don't Go e mande pra gente!

        Ex.: http://www.youtube.com/watch?v=0IvSvIwGdwk
        ver covers de outras músicas »
        0:00 / 0:00

        Capítulos

          1 versão de violão dificuldade exibições contribuição e correção
          1 versão de guitarra dificuldade exibições contribuição e correção
          1 versão de cavaco dificuldade exibições contribuição e correção
          1 versão de teclado dificuldade exibições contribuição e correção
          3 versões de Guitar Proformatodownloadscontribuição
          play/pausefechar subir/descer velocidade
          6ª corda E5ª corda A4ª corda D3ª corda G2ª corda B1ª corda E
            acordes
            publicidade
            fechar
            ok