Cifra Club

Sweet Emotion

Aerosmith

Cifra: Versão 2 (violão e guitarra)
tom: D
Intro

Sweet      Emo....tion
E|----------------------------------|
B|----------------------------------|
G|----------------------------------|
|7----------------------------------|
A|-----------5----------------------|
E|------------------5---------------|


Riff 1

 D5   A5    A5       G5     A5
E|-----------------|-----------------|
B|-3---------------|-----------------|
G|-2---2-----2-----|---------2-------|
D|-0---2-----2-----|---------2-------|
A|-----0-----0-----|-3p0-----0-------|
E|-----------------|-----3-----------|


Riff 2

   D5
E|-----------------|-----------------|
B|-----------------|-----------------|
G|-----------------|-----------------|
D|-----------------|-----------------|
A|-5p3p0-----------|-----------------|
E|-------2-2-2---3-|-3-3---4-4---5---|
Composição de steven tiller / Steven Tyler / Tom Hamilton
Colaboração e revisão:
  • Otávio Gomes
  • filipe luciano
829 exibições
    • ½ Tom
    • A
    • Bb
    • B
    • C
    • Db
    • D
    • Eb
    • E
    • F
    • F#
    • G
    • Ab
  • Adicionar à lista

    0 comentários

    Ver todos os comentários

    Conseguiu tocar?

    0 Tocaram 0 Ainda não

    Grave um vídeo tocando Sweet Emotion e nos envie!

    00:00 / 00:00
    Outros vídeos desta música
    Repetir Qualidade Automático
    Outros vídeos desta música
    00:00 / 00:00
    Automático

    Cifra Club Pro

    Aproveite o Cifra Club com benefícios exclusivos e sem anúncios
    Cifra Club Pro
    Aproveite o Cifra Club com benefícios exclusivos e sem anúncios
    OK