Cifra Club

Walk This Way

Aerosmith

Tab de baixo: Principal
[Guitar Introd]


[Primeira parte]

Backstroke lover...

Parte 1 de 3 ( 3x )
G|----------------------------------------------|
D|----------------------------------------------|
A|-0-3-3-0-3-------1--3-3-0-3-----------1---0---|
E|-----------0-1-2------------0-1-0-2-3---3-----|

Parte 2 de 3
G|----------------------------------------------|
D|----------------------------------------------|
A|-3-3-0-3-------1--3-3-0-3-----0---------------|
E|---------0-1-2------------0-3-----------------|

Parte 3 de 3
G|----------------------------------------------|
D|--------------------------------------5-------|
A|-------7-------7----------7-------7-----7-----|
E|-5-6-7---5-6-7---0--5-6-7---5-6-7---0---------|

G|----------------------------------------------|
D|----------------------------------------------|
A|-------7-------7----------7-------7--0--------|
E|-5-6-7---5-6-7---0--5-6-7---5-6-7-------------|


[Segunda parte]

Seesaw swingin' with the boys in the school...

Parte 1 de 2 ( 3x ) 
G|----------------------------------------------|
D|----------------------------------------------|
A|-3-3-0-3-------1--3-3-0-3-----------1---0-----|
E|---------0-1-2------------0-1-0-2-3---3-------|

Parte 2 de 2
G|----------------------------------------------|
D|----------------------------------------------|
A|-3-3-0-3-------1--3-3-0-3-----------0-1-2-----|
E|---------0-1-2------------1-1-2-2-3-----------|


[Refrão]

Walk this way, walk this way...

Parte 1 ( 4x )
G|----------------------------------------------|
D|--------------------------------1-2-----------|
A|-3-3-3-3--3-3-3-3--3-3-3-3--3-3---------------|
E|----------------------------------------------|

G|-----------------------2----------------------|
D|-3-3-3-3--3-3-3-3--3h5---5-3-1----------------|
A|-------------------------------3-1------------|
E|----------------------------------------------|


[Introdução 2] 

Parte 1 de 2
G|--------------------------------------8-9-----|
D|----------------------------8--8-9-10---------|
A|-3-3-0-3-------1--3-3-0-3/8-------------------|
E|---------0-1-2--------------------------------|

G|----------------------------------------------|
D|----------------------------------------------|
A|-3-3-0-3--------1--3-3-0-3-----0--------------|
E|----------0-1-2------------0-3----------------|

Parte 2 de 2
G|----------------------------------------------|
D|--------------------------------------5-------|
A|-------7-------7----------7-------7-----7-----|
E|-5-6-7---5-6-7---0--5-6-7---5-6-7---0---------|

G|----------------------------------------------|
D|----------------------------------------------|
A|-------7-------7----------7-------7--0--------|
E|-5-6-7---5-6-7---0--5-6-7---5-6-7-------------|


[Terceira parte]

Schoolgirl sweetie with a classy kinda sassy...

Parte 1 de 3 ( 3x )
G|----------------------------------------------|
D|----------------------------------------------|
A|-3-3-0-3-------1--3-3-0-3-----------1---0-----|
E|---------0-1-2------------0-1-0-2-3---3-------|

Parte 2 de 3
G|----------------------------------------------|
D|----------------------------------------------|
A|-3-3-0-3-------1--3-3-0-3-----0---------------|
E|---------0-1-2------------0-3-----------------|

Parte 3 de 3
G|----------------------------------------------|
D|----------------------------------------------|
A|-------7-------7----------7-------7-----------|
E|-5-6-7---5-6-7---0--5-6-7---5-6-7---0---------|

G|----------------------------------------------|
D|----------------------------------------------|
A|-------7-------7----------7-------7--0--------|
E|-5-6-7---5-6-7---0--5-6-7---5-6-7-------------|


[Quarta parte]

Seesaw swingin' with the boys in the school...

Parte 1 de 2 ( 3x ) 
G|----------------------------------------------|
D|----------------------------------------------|
A|-3-3-0-3-------1--3-3-0-3-----------1---0-----|
E|---------0-1-2------------0-1-0-2-3---3-------|

Parte 2 de 2
G|----------------------------------------------|
D|----------------------------------------------|
A|-3-3-0-3-------1--3-3-0-3-----------0-1-2-----|
E|---------0-1-2------------1-1-2-2-3-----------|


[Refrão 2]

Walk this way, walk this way...

Parte 1 de 2(2x)
G|----------------------------------------------|
D|--------------------------------1-2-----------|
A|-3-3-3-3--3-3-3-3--3-3-3-3--3-3---------------|
E|----------------------------------------------|

G|-----------------------2----------------------|
D|-3-3-3-3--3-3-3-3--3h5---5-3-1----------------|
A|-------------------------------3-1------------|
E|----------------------------------------------|

Parte 2 de 2
G|--------------------------------1-2-----------|
D|---------10-8-----------0-1-2-3---------------|
A|-3-3-3/8------10\-----------------------------|
E|-------------------1-1-1----------------------|


[Introdução 3 Final] 

Parte 1 de 3 
G|---------------------------------------8-9----|
D|----------------------------8-7-8-9-10--------|
A|-3-3-0-3-------1--3-3-0-3/8-------------------|
E|---------0-1-2--------------------------------|

G|----------------------------------------------|
D|----------------------------------------------|
A|-3-3-0-3--------1--3-3-0-3-----0--------------|
E|----------0-1-2------------0-3----------------|

Parte 2 de 3 ( 2x )
G|----------------------------------------------|
D|----------------------------------------------|
A|-------7-------7----------7-------7-0---------|
E|-5-6-7---5-6-7---0--5-6-7---5-6-7-------------|

G|----------------------------------------------|
D|----------------------------------------------|
A|-------7-------7----------7-------7--0--------|
E|-5-6-7---5-6-7---0--5-6-7---5-6-7-------------|

Parte 3 de 3 (3x + fade out)
G|----------------------------------------------|
D|----------------------------------------------|
A|-------7-------7----------7-------7-0-0-------|
E|-5-6-7---5-6-7---0--5-6-7---5-6-7-------------|

G|----------------------------------------------|
D|----------------------------------------------|
A|-------7-------7----------7-------7--0-0------|
E|-5-6-7---5-6-7---0--5-6-7---5-6-7-------------|
exibições 11.536
Composição: Joe Perry / Steven Tyler Colaboração e revisão:
  • Reginaldo Costa

0 comentários

mostrar mais comentários

Conseguiu tocar?

0 tocaram 0 ainda não

Grave um vídeo tocando Walk This Way e mande pra gente!

00:00 / 00:00
outros vídeos desta música
repetir qualidade Automático
Outros vídeos desta música
00:00 / 00:00
Automático
Capítulos
  • Tocando música
  • Apresentação / Equipamentos
  • TAB - Primeira Parte - Parte 1 de 3
  • TAB - Primeira parte - Parte 2 de 3
  • TAB - Primeira parte - Parte 3 de 3
  • TAB - Segunda parte - Parte 1 de 2
  • TAB - Segunda parte - Parte 2 de 2
  • TAB - Refrão
  • Dicas variações e repetições
  • TAB - Introdução - Parte 1 de 2
  • TAB - Introdução - Parte 2 de 2
  • TAB - Segundo refrão - Parte 1 de 2
  • TAB - Segundo refrão - Parte 2 de 2
  • TAB - Introdução 3 - Parte 1 de 3
  • TAB - Introdução 3 - Parte 2 de 3
  • TAB - Introdução 3 - Parte 3 de 3
  • Encerramento
OK