Cifra Club

Too Much Too Young Too Fast

Airbourne

Cifra: Principal (violão e guitarra)
tom: G
have been playing in pubs around Australia for a couple of years, they are recommended
The Rolling Stones and other major bands. Their style is the same as ACDC and Rose 
They fucking rock!

By their CD!

Any comments email me

*

Cheers! Enjoy

Intro:
e|--------------3-3---------|--3-3---------3-3-----------------|
B|--------2-2---2-2---------|--2-2---2-2---2-2-----------------|
G|--2-2---------3-3---2-2---|--3-3---------3-3---2-2-----------|  x2
D|--2-2---------------2-2---|--------------------2-2-----------|
A|--0-0---2-2---------0-0---|--------2-2---------0-0-----------|
E|--------3-3---------------|--------3-3-----------------------|

Verse 1:
e|--------------------3-3-----------|
B|--------------2-2---2-2---2-2-2---|
G|--2-2---------------3-3-----------|
D|--2-2-----------------------------|
A|--0-0---------2-2---------2-2-2---|
E|--------------3-3---------3-3-3---|

Refrain:
e|--------------------------|
B|--2-----------------------|
G|--------------1-----------|
D|--------------2-----------|
A|--2-----------2-----------|
E|--3----2--0---------------|

Chorus:
e|--------------3-3---------|--3-3---------3-3-----------------|
B|--------2-2---2-2---------|--2-2---2-2---2-2-----------------|
G|--2-2---------3-3---2-2---|--3-3---------3-3---2-2---2-2-----|
D|--2-2---------------2-2---|--------------------2-2---2-2-----|  x2
A|--0-0---2-2---------0-0---|--------2-2---------0-0---0-0-----|
E|--------3-3---------------|--------3-3-----------------------|

Verse:
e|--------------------3-3-----------|
B|--------------2-2---2-2---2-2-2---|
G|--2-2---------------3-3-----------|
D|--2-2-----------------------------|
A|--0-0---------2-2---------2-2-2---|
E|--------------3-3---------3-3-3---|

Refrain:
e|--------------------------|
B|--2-----------------------|
G|--------------1-----------|
D|--------------2-----------|
A|--2-----------2-----------|
E|--3----2--0---------------|

Chorus:
e|--------------3-3---------|--3-3---------3-3-----------------|
B|--------2-2---2-2---------|--2-2---2-2---2-2-----------------|
G|--2-2---------3-3---2-2---|--3-3---------3-3---2-2---1-1-----|
D|--2-2---------------2-2---|--------------------2-2---2-2-----|  x2
A|--0-0---2-2---------0-0---|--------2-2---------0-0---2-2-----|
E|--------3-3---------------|--------3-3-----------------------|
                                                       Play this
Solo:                                                  2nd time
e|--------------3-3---------|--3-3---------3-3-------|---------|
B|--------2-2---2-2---------|--2-2---2-2---2-2-------|---------|
G|--2-2---------3-3---2-2---|--3-3---------3-3---2-2-|-1-1-----|
D|--2-2---------------2-2---|--------------------2-2-|-2-2-----|  x2
A|--0-0---2-2---------0-0---|--------2-2---------0-0-|-2-2-----|
E|--------3-3---------------|--------3-3-------------|---------|

Chorus:
e|--------------3-3---------|--3-3---------3-3--------|-------22222---|
B|--------2-2---2-2---------|--2-2---2-2---2-2--------|---------------|
G|--2-2---------3-3---2-2---|--3-3---------3-3---2-2--|-11111---------|
D|--2-2---------------2-2---|--------------------2-2--|-22222---------|  x2
A|--0-0---2-2---------0-0---|--------2-2---------0-0--|-22222-22222---|
E|--------3-3---------------|--------3-3--------------|-------33333---|

Bridge:
e|--------------3-3---------|--3-3---------3-3-----------------|
B|--------2-2---2-2---------|--2-2---2-2---2-2-----------------|
G|--2-2---------3-3---2-2---|--3-3---------3-3---2-2-----------|  x1
D|--2-2---------------2-2---|--------------------2-2-----------|
A|--0-0---2-2---------0-0---|--------2-2---------0-0-----------|
E|--------3-3---------------|--------3-3-----------------------|

Solo/Outro:
e|--------------3-3---------|--3-3---------3-3-----------------|
B|--------2-2---2-2---------|--2-2---2-2---2-2-----------------|
G|--2-2---------3-3---2-2---|--3-3---------3-3---2-2-----------|  Repeat
D|--2-2---------------2-2---|--------------------2-2-----------|    to
A|--0-0---2-2---------0-0---|--------2-2---------0-0-----------|   Fade
E|--------3-3---------------|--------3-3-----------------------|
00:00 / 00:00
Outros vídeos desta música
Repetir
Outros vídeos desta música
Composição de Vickie James Wright
4.691 exibições
    • ½ Tom
    • A
    • Bb
    • B
    • C
    • Db
    • D
    • Eb
    • E
    • F
    • F#
    • G
    • Ab
  • Adicionar à lista

    0 comentários

    Ver todos os comentários

    Entre para oCifra Club PRO

    Tenha acesso a benefícios exclusivos no App e no Site

    • Chega de anúncios

    • Prioridade de compra em lançamentos

    • Mais recursos no app do Afinador

    • Atendimento Prioritário

    • Descontos nos produtos Cifra Club

    • Ajude a produzir mais conteúdo

    00:00 / 00:00

    Cifra Club Pro

    Aproveite o Cifra Club com benefícios exclusivos e sem anúncios
    Cifra Club Pro
    Aproveite o Cifra Club com benefícios exclusivos e sem anúncios
    OK