Cifra Club

One More Soul To The Call

Akira Yamaoka

Cifra: Principal (violão e guitarra)
Tom: C
Intro:

   Em   Em   Em
E|--------------------------------------------------------------------------|
B|--------------------------------------------------------------------------|
G|--------------------------------------------------------------------------|
D|-2----2----2--------2---2---2---2---2-----2---2---2---2---2---------------|
A|-2----2----2-------0---0---0---0---0-----0---0---0---0---0----------------|
E|------------------1---1---1---1---1---1-0---0---0---0---0---0-------------|

E|--------------------------------------------------------|
B|--------------------------------------------------------|
G|--------------------------------------------------------|
D|--2---2---2---2---2-----2---2---2---2---2---------------|
A|-0---0---0---0---0-----0---0---0---0---0----------------|
E|1---1---1---1---1---1-0---0---0---0---0---0-------------|

E|--------------------------------------------------------|
B|--------------------------------------------------------|
G|--------------------------------------------------------|
D|--2---2---2---2---2-----2---2---2---2---2---------------|
A|-0---0---0---0---0-----0---0---0---0---0----------------|
E|1---1---1---1---1---1-0---0---0---0---0---0-------------|

E|--------------------------------------------------------|
B|--------------------------------------------------------|
G|--------------------------------------------------------|
D|--2---2---2---2---2-----2---2---2---2---2---------------|
A|-0---0---0---0---0-----0---0---0---0---0----------------|
E|1---1---1---1---1---1-0---0---0---0---0---0-------------|


   Em    C    Am   Hm   Em   C   Am   Hm
E|-0----0----0----2----0----0----0----2-|
B|-0----1----1----0----0----1----1----0-|
G|-0----0----2----2----0----0----2----2-|
D|-2----2----2----1----2----2----2----1-|
A|-2----3----0----2----2----3----0----2-|
E|--------------------------------------|

   Em    C   Am   Hm    Em   C   Am   Hm
E|-0----0----0----2----0----0----0----2-|
B|-0----1----1----0----0----1----1----0-|
G|-0----0----2----2----0----0----2----2-|
D|-2----2----2----1----2----2----2----1-|
A|-2----3----0----2----2----3----0----2-|
E|--------------------------------------|


   Em   Em   Em   Em   Em   Em   Em   Em   Em  Em
E|--------------------------------------------------|
B|--------------------------------------------------|
G|--------------------------------------------------|
D|-2-2-2-2-2-2-2-2-2-2-2-2-2-2-2-2-2-2-2-2-2-2-2-2--|
A|-2-2-2-2-2-2-2-2-2-2-2-2-2-2-2-2-2-2-2-2-2-2-2-2--|
E|--------------------------------------------------|


E|----------------------------------------------------------------|
B|----------------------------------------------------------------|
G|----------------------------------------------------------------|
D|---------------------------0-2-----------------------------0-2--|
A|------------0-2-0-2-3-0-2-3-----------------0-2-0-2-3-0-2-3-----|
E|-0-2-3-0-2-3---------------------0-2-3-0-2-3--------------------|

E|----------------------------------------------------------------|
B|----------------------------------------------------------------|
G|----------------------------------------------------------------|
D|---------------------------0-2-----------------------------0-2--|
A|------------0-2-0-2-3-0-2-3-----------------0-2-0-2-3-0-2-3-----|
E|-0-2-3-0-2-3---------------------0-2-3-0-2-3--------------------|

Refrão

   Em    C    Am   Hm   Em   C   Am   Hm
E|-0----0----0----2----0----0----0----2-|
B|-0----1----1----0----0----1----1----0-|
G|-0----0----2----2----0----0----2----2-|
D|-2----2----2----1----2----2----2----1-|
A|-2----3----0----2----2----3----0----2-|
E|--------------------------------------|

   Em    C   Am   Hm    Em   C   Am   Hm
E|-0----0----0----2----0----0----0----2-|
B|-0----1----1----0----0----1----1----0-|
G|-0----0----2----2----0----0----2----2-|
D|-2----2----2----1----2----2----2----1-|
A|-2----3----0----2----2----3----0----2-|
E|--------------------------------------|


E|--------------------------------------------------------|
B|--------------------------------------------------------|
G|--------------------------------------------------------|
D|--2---2---2---2---2-----2---2---2---2---2---------------|
A|-0---0---0---0---0-----0---0---0---0---0----------------|
E|1---1---1---1---1---1-0---0---0---0---0---0-------------|

E|--------------------------------------------------------|
B|--------------------------------------------------------|
G|--------------------------------------------------------|
D|--2---2---2---2---2-----2---2---2---2---2---------------|
A|-0---0---0---0---0-----0---0---0---0---0----------------|
E|1---1---1---1---1---1-0---0---0---0---0---0-------------|

E|--------------------------------------------------------|
B|--------------------------------------------------------|
G|--------------------------------------------------------|
D|--2---2---2---2---2-----2---2---2---2---2---------------|
A|-0---0---0---0---0-----0---0---0---0---0----------------|
E|1---1---1---1---1---1-0---0---0---0---0---0-------------|

E|--------------------------------------------------------|
B|--------------------------------------------------------|
G|--------------------------------------------------------|
D|--2---2---2---2---2-----2---2---2---2---2---------------|
A|-0---0---0---0---0-----0---0---0---0---0----------------|
E|1---1---1---1---1---1-0---0---0---0---0---0-------------|

E|--------------------------------------------------------|
B|--------------------------------------------------------|
G|--------------------------------------------------------|
D|--2---2---2---2---2-----2---2---2---2---2---------------|
A|-0---0---0---0---0-----0---0---0---0---0----------------|
E|1---1---1---1---1---1-0---0---0---0---0---0-------------|


   Em    C    Am   Hm   Em   C   Am   Hm
E|-0----0----0----2----0----0----0----2-|
B|-0----1----1----0----0----1----1----0-|
G|-0----0----2----2----0----0----2----2-|
D|-2----2----2----1----2----2----2----1-|
A|-2----3----0----2----2----3----0----2-|
E|--------------------------------------|

   Em    C   Am   Hm    Em   C   Am   Hm
E|-0----0----0----2----0----0----0----2-|
B|-0----1----1----0----0----1----1----0-|
G|-0----0----2----2----0----0----2----2-|
D|-2----2----2----1----2----2----2----1-|
A|-2----3----0----2----2----3----0----2-|
E|--------------------------------------|


   Em   Em   Em   Em   Em   Em   Em   Em   Em  Em
E|--------------------------------------------------|
B|--------------------------------------------------|
G|--------------------------------------------------|
D|-2-2-2-2-2-2-2-2-2-2-2-2-2-2-2-2-2-2-2-2-2-2-2-2--|
A|-2-2-2-2-2-2-2-2-2-2-2-2-2-2-2-2-2-2-2-2-2-2-2-2--|
E|--------------------------------------------------|


E|----------------------------------------------------------------|
B|----------------------------------------------------------------|
G|----------------------------------------------------------------|
D|---------------------------0-2-----------------------------0-2--|
A|------------0-2-0-2-3-0-2-3-----------------0-2-0-2-3-0-2-3-----|
E|-0-2-3-0-2-3---------------------0-2-3-0-2-3--------------------|

E|----------------------------------------------------------------|
B|----------------------------------------------------------------|
G|----------------------------------------------------------------|
D|---------------------------0-2-----------------------------0-2--|
A|------------0-2-0-2-3-0-2-3-----------------0-2-0-2-3-0-2-3-----|
E|-0-2-3-0-2-3---------------------0-2-3-0-2-3--------------------|


Refrão

   Em    C    Am   Hm   Em   C   Am   Hm
E|-0----0----0----2----0----0----0----2-|
B|-0----1----1----0----0----1----1----0-|
G|-0----0----2----2----0----0----2----2-|
D|-2----2----2----1----2----2----2----1-|
A|-2----3----0----2----2----3----0----2-|
E|--------------------------------------|

   Em    C   Am   Hm    Em   C   Am   Hm
E|-0----0----0----2----0----0----0----2-|
B|-0----1----1----0----0----1----1----0-|
G|-0----0----2----2----0----0----2----2-|
D|-2----2----2----1----2----2----2----1-|
A|-2----3----0----2----2----3----0----2-|
E|--------------------------------------|


   Em   Em   Em   Em   Em   Em   Em   Em   Em  Em
E|--------------------------------------------------|
B|--------------------------------------------------|
G|--------------------------------------------------|
D|-2-2-2-2-2-2-2-2-2-2-2-2-2-2-2-2-2-2-2-2-2-2-2-2--|
A|-2-2-2-2-2-2-2-2-2-2-2-2-2-2-2-2-2-2-2-2-2-2-2-2--|
E|--------------------------------------------------|


E|-11-11-10-10--11-16-----11-11-10-10-11-16-----11-11-10-10-11-16-|
B|-------------9---------------------9---------------------9------|
G|----------------------------------------------------------------|
D|----------------------------------------------------------------|
A|----------------------------------------------------------------|
E|----------------------------------------------------------------|

   Em    C    Am   Hm   Em   C   Am   Hm
E|--------------------------------------|
B|--------------------------------------|
G|--------------------------------------|
D|-2----2----2----1----2----2----2----1-|
A|-2----3----0----2----2----3----0----2-|
E|--------------------------------------|


   Em   Em   Em   Em   Em   Em   Em   Em   Em  Em
E|--------------------------------------------------|
B|--------------------------------------------------|
G|--------------------------------------------------|
D|-2-2-2-2-2-2-2-2-2-2-2-2-2-2-2-2-2-2-2-2-2-2-2-2--|
A|-2-2-2-2-2-2-2-2-2-2-2-2-2-2-2-2-2-2-2-2-2-2-2-2--|
E|--------------------------------------------------|


E|----------------------------------------------------------------|
B|----------------------------------------------------------------|
G|----------------------------------------------------------------|
D|---------------------------0-2-----------------------------0-2--|
A|------------0-2-0-2-3-0-2-3-----------------0-2-0-2-3-0-2-3-----|
E|-0-2-3-0-2-3---------------------0-2-3-0-2-3--------------------|

E|----------------------------------------------------------------|
B|----------------------------------------------------------------|
G|----------------------------------------------------------------|
D|---------------------------0-2-----------------------------0-2--|
A|------------0-2-0-2-3-0-2-3-----------------0-2-0-2-3-0-2-3-----|
E|-0-2-3-0-2-3---------------------0-2-3-0-2-3--------------------|


Refrão

   Em    C   Am   Hm    Em   C   Am   Hm
E|-0----0----0----2----0----0----0----2-|
B|-0----1----1----0----0----1----1----0-|
G|-0----0----2----2----0----0----2----2-|
D|-2----2----2----1----2----2----2----1-|
A|-2----3----0----2----2----3----0----2-|
E|--------------------------------------|

   Em    C   Am   Hm    Em   C   Am   Hm
E|-0----0----0----2----0----0----0----2-|
B|-0----1----1----0----0----1----1----0-|
G|-0----0----2----2----0----0----2----2-|
D|-2----2----2----1----2----2----2----1-|
A|-2----3----0----2----2----3----0----2-|
E|--------------------------------------|

   Em    C   Am   Hm    Em   C   Am   Hm
E|-0----0----0----2----0----0----0----2-|
B|-0----1----1----0----0----1----1----0-|
G|-0----0----2----2----0----0----2----2-|
D|-2----2----2----1----2----2----2----1-|
A|-2----3----0----2----2----3----0----2-|
E|--------------------------------------|

   Em    C   Am   Hm    Em   C   Am   Hm
E|-0----0----0----2----0----0----0----2-|
B|-0----1----1----0----0----1----1----0-|
G|-0----0----2----2----0----0----2----2-|
D|-2----2----2----1----2----2----2----1-|
A|-2----3----0----2----2----3----0----2-|
E|--------------------------------------|
exibições 652
Acordes para:
    Composição: Akira Yamaoka Colaboração e revisão:
    • Diego Martins

    0 comentários

    mostrar mais comentários

    Conseguiu tocar?

    1 tocaram 0 ainda não

    Grave um vídeo tocando One More Soul To The Call e mande pra gente!

    00:00 / 00:00
    outros vídeos desta música
    repetir qualidade Automático
    Outros vídeos desta música
    00:00 / 00:00
    Automático
    OK