Cifra Club

Don't Wanna Fight

Alabama Shakes

Cifra: Principal (violão e guitarra)
exibições 10.273
Tom: B
[Introdução 1]

(Guitarra 1)

Parte 1 de 4
  P.M.  .  .  .  . .  .  . .  .  .  .  . .  .
E|-----------------------------------------------------|
B|-----------------------------------------------------|
G|-----------------------------------------------------|
D|-----------------------------------------------------|
A|-9-9--9--9--9--7-7--7--9-9--9--9--9--7-7--7----------|
E|-----------------------------------------------------|

Parte 2 de 4
  P.M.  .  .  .  . .  .  . .  .  .  .  . .  .
E|-----------------------------------------------------|
B|-----------------------------------------------------|
G|-----------------------------------------------------|
D|-----------------------------------------------------|
A|-5-5--5--5--5----------5-5--5--5--5------------------|
E|---------------7-7--7----------------7-7--7----------|

Parte 3 de 4
  P.M.  .  .  .  . .  .  . .  .  .  .  . .  .
E|-----------------------------------------------------|
B|-----------------------------------------------------|
G|-----------------------------------------------------|
D|-----------------------------------------------------|
A|-9-9--9--9--9--7-7--7--9-9--9--9--9--7-7--7----------|
E|-----------------------------------------------------|

Parte 4 de 4
  P.M.  .  .  .  . .  .  . .  .  .  .  . .  .
E|-----------------------------------------------------|
B|-----------------------------------------------------|
G|-----------------------------------------------------|
D|-----------------------------------------------------|
A|-5-5--5--5--5----------5-5--5--5--5------------------|
E|---------------7-7--7----------------7-7--7----------|


(Guitarra 2)

Parte 1 de 4
  P.M.  .  .  .  . .  .  . .  .  .  .  . .  .
E|-----------------------------------------------------|
B|-----------------------------------------------------|
G|-----------------------------------------------------|
D|-----------------------------------------------------|
A|-----------------------------------------------------|
E|-5-5--5--5--5--5-7--7--5-5--5--5--5--5-7--7----------|

Parte 2 de 4
  P.M.  .  .  .  . .  .  . .  .  .  .  . .  .
E|-----------------------------------------------------|
B|-----------------------------------------------------|
G|-----------------------------------------------------|
D|-----------------------------------------------------|
A|--------------------------------------------5--------|
E|-5-5--5--5--5--5-7--7--5-5--5--5--5--5-7--7----------|

Parte 3 de 4
  P.M.  .  .  .  . .  .  . .  .  .  .  . .  .
E|-----------------------------------------------------|
B|-----------------------------------------------------|
G|-----------------------------------------------------|
D|-----------------------------------------------------|
A|-----------------------------------------------------|
E|-5-5--5--5--5--5-7--7--5-5--5--5--5--5-7--7----------|

Parte 4 de 4
  P.M.  .  .  .  . .  .  . .  .  .  .
E|-----------------------------------------------------|
B|-------------------------------------7------7--------|
G|-------------------------------------7------7--------|
D|-----------------------------------------9-----------|
A|----------------------------------------10-----------|
E|-5-5--5--5--5--5-7--7--5-5--5--5--7------------------|


[Introdução 2]

(Guitarra 1)

Parte 1 de 4
   Em
E|-----------------------------------------------------|
B|-----------------------------------------------------|
G|-----------------------------------------------------|
D|-----------------------------------------------------|
A|-9-9--9--9--9--7-7--7--9-9--9--9--9--7-7--7----------|
E|-----------------------------------------------------|

Parte 2 de 4
   Bm
E|-----------------------------------------------------|
B|-----------------------------------------------------|
G|-----------------------------------------------------|
D|-----------------------------------------------------|
A|-5-5--5--5--5----------5-5--5--5--5------------------|
E|---------------7-7--7----------------7-7--7----------|

Parte 3 de 4
   Em
E|-----------------------------------------------------|
B|-----------------------------------------------------|
G|-----------------------------------------------------|
D|-----------------------------------------------------|
A|-9-9--9--9--9--7-7--7--9-9--9--9--9--7-7--7----------|
E|-----------------------------------------------------|

Parte 4 de 4
   Bm
E|-----------------------------------------------------|
B|-----------------------------------------------------|
G|-----------------------------------------------------|
D|-----------------------------------------------------|
A|-5-5--5--5--5----------5-5--5--5--5------------------|
E|---------------7-7--7----------------7-7--7----------|


(Guitarra 2)

Parte 1 de 4
   Em
E|-7--------14----14--15--14\---------------|
B|-8----12--15----15------14\---------------|
G|-9----12--16------------------------------|
D|-9----14----------------------------------|
A|-7----------------------------------------|
E|------------------------------------------|

Parte 2 de 4
   Bm
E|-7----------------------------------------|
B|-7----7--------------7-7------------------|
G|-7----7---------7----9-7------------------|
D|-9----9---------9------9------------------|
A|---------9------9-------------------------|
E|------------10--7-------------------------|

Parte 3 de 4
   Em
E|-7----9--9/10-----------------------------|
B|-8----8--8--------------------------------|
G|-9----9--9--------------------------------|
D|-9----------------------------------------|
A|-7----------------------------------------|
E|------------------------------------------|

Parte 4 de 4
   Bm
E|-7----------------------------------------|
B|-7----------------------------------------|
G|-7----------------------------------------|
D|-9----------------------------------------|
A|-9----------------------------------------|
E|-7----------------------------------------|


[Primeira Parte]

(Guitarra 1)

Parte 1 de 8
   Em
E|-----------7---------------7--------------|
B|-8/10-8----8----8/10--8----8--------------|
G|-9/11-9----9----9/11--9----9--------------|
D|-----------9---------------9--------------|
A|-----------7---------------7--------------|
E|------------------------------------------|

Parte 2 de 8
   Bm
E|-----------7---------------7--------------|
B|-7h8--7----7----7h8---7----7--------------|
G|-7h9--7----7----7h9---7----7--------------|
D|-----------9---------------9--------------|
A|------------------------------------------|
E|------------------------------------------|

Parte 3 de 8
   Em
E|-----------7---------------7--------------|
B|-8/10-8----8----8/10--8----8--------------|
G|-9/11-9----9----9/11--9----9--------------|
D|-----------9---------------9--------------|
A|-----------7---------------7--------------|
E|------------------------------------------|

Parte 4 de 8
   Bm
E|-----------7---------------7--------------|
B|-7h8--7----7----7h8---7----7--------------|
G|-7h9--7----7----7h9---7----7--------------|
D|-----------9---------------9--------------|
A|------------------------------------------|
E|------------------------------------------|

Parte 5 de 8
   Em
E|-----------7---------------7--------------|
B|-8/10-8----8----8/10--8----8--------------|
G|-9/11-9----9----9/11--9----9--------------|
D|-----------9---------------9--------------|
A|-----------7---------------7--------------|
E|------------------------------------------|

Parte 6 de 8
   Bm
E|-----------7---------------7--------------|
B|-7h8--7----7----7h8---7----7--------------|
G|-7h9--7----7----7h9---7----7--------------|
D|-----------9---------------9--------------|
A|------------------------------------------|
E|------------------------------------------|

Parte 7 de 8
   Em
E|-----------7---------------7--------------|
B|-8/10-8----8----8/10--8----8--------------|
G|-9/11-9----9----9/11--9----9--------------|
D|-----------9---------------9--------------|
A|-----------7---------------7--------------|
E|------------------------------------------|

Parte 8 de 8
   Bm
E|-----------7-------------------14---------|
B|-7h8--7----7----7h8---7--------15---------|
G|-7h9--7----7----7h9---7----9/-------------|
D|-----------9---------------9/-------------|
A|------------------------------------------|
E|------------------------------------------|


(Guitarra 2)

Parte 1 de 8
  Em
  P.M.  .  .  .  . .  .  . .  .  .  .  . .  .
E|-----------------------------------------------------|
B|-----------------------------------------------------|
G|-----------------------------------------------------|
D|-----------------------------------------------------|
A|-5-5--5--5--5----------5-5--5--5--5------------------|
E|---------------7-7--7----------------7-7--7----------|

Parte 2 de 8
  Bm
  P.M.  .  .  .  . .  .  . .  .  .  .  . .  .
E|-----------------------------------------------------|
B|-----------------------------------------------------|
G|-----------------------------------------------------|
D|-----------------------------------------------------|
A|-----------------------------------------------------|
E|-5--5—5--5--5--5-7--7--5-5--5--5--5--5-7--7----------|

Parte 3 de 8
  Em
  P.M.  .  .  .  . .  .  . .  .  .  .  . .  .
E|-----------------------------------------------------|
B|-----------------------------------------------------|
G|-----------------------------------------------------|
D|-----------------------------------------------------|
A|-5-5--5--5--5----------5-5--5--5--5------------------|
E|---------------7-7--7----------------7-7--7----------|

Parte 4 de 8
  Bm
  P.M.  .  .  .  . .  .  . .  .  .  .  . .  .
E|-----------------------------------------------------|
B|-----------------------------------------------------|
G|-----------------------------------------------------|
D|-----------------------------------------------------|
A|-----------------------------------------------------|
E|-5-5--5--5--5--5-7--7--5-5--5--5--5--5-7--7----------|

Parte 5 de 8
  Em
  P.M.  .  .  .  . .  .  . .  .  .  .  . .  .
E|-----------------------------------------------------|
B|-----------------------------------------------------|
G|-----------------------------------------------------|
D|-----------------------------------------------------|
A|-5-5--5--5--5----------5-5--5--5--5------------------|
E|---------------7-7--7----------------7-7--7----------|

Parte 6 de 8
  Bm
  P.M.  .  .  .  . .  .  . .  .  .  .  . .  .
E|-----------------------------------------------------|
B|-----------------------------------------------------|
G|-----------------------------------------------------|
D|-----------------------------------------------------|
A|-----------------------------------------------------|
E|-5-5--5--5--5--5-7--7--5-5--5--5--5--5-7--7----------|

Parte 7 de 8
  Em
  P.M.  .  .  .  . .  .  . .  .  .  .  . .  .
E|-----------------------------------------------------|
B|-----------------------------------------------------|
G|-----------------------------------------------------|
D|-----------------------------------------------------|
A|-5-5--5--5--5----------5-5--5--5--5------------------|
E|---------------7-7--7----------------7-7--7----------|

Parte 8 de 8
  Bm
  P.M.  .  .  .  . .  .  . .  .  .  .
E|-----------------------------------------------------|
B|-------------------------------------7--8--7---------|
G|-------------------------------------7--7--7---------|
D|-----------------------------------------------------|
A|-----------------------------------------------------|
E|-5--5—5--5--5--5-7--7--5-5--5--5--7------------------|

 Em
My life

Your life
        Bm
Don't cross them lines
      Em
What you like

What I like
              Bm
Why can't we both be right?
   Em
Attacking

Defending
               Bm
Until there's nothing left

Worth winning
 Em
Your pride

And my pride
Bm
   Don't waste my time


[Primeiro Refrão]

(Guitarra 1)

Parte 1 de 4
  P.M.  .  .  .  . .  .  . .  .  .  .  . .  .
E|-----------------------------------------------------|
B|-----------------------------------------------------|
G|-----------------------------------------------------|
D|-----------------------------------------------------|
A|-9-9--9--9--9--7-7--7--9-9--9--9--9--7-7--7----------|
E|-----------------------------------------------------|

Parte 2 de 4
  P.M.  .  .  .  . .  .  . .  .  .  .  . .  .
E|-----------------------------------------------------|
B|-----------------------------------------------------|
G|-----------------------------------------------------|
D|-----------------------------------------------------|
A|-5-5--5--5--5----------5-5--5--5--5------------------|
E|---------------7-7--7----------------7-7--7----------|

Parte 3 de 4
  P.M.  .  .  .  . .  .  . .  .  .  .  . .  .
E|-----------------------------------------------------|
B|-----------------------------------------------------|
G|-----------------------------------------------------|
D|-----------------------------------------------------|
A|-9-9--9--9--9--7-7--7--9-9--9--9--9--7-7--7----------|
E|-----------------------------------------------------|

Parte 4 de 4
  P.M.  .  .  .  . .  .  . .  .  .  .  . .  .
E|-----------------------------------------------------|
B|-----------------------------------------------------|
G|-----------------------------------------------------|
D|-----------------------------------------------------|
A|-5-5--5--5--5----------5-5--5--5--5------------------|
E|---------------7-7--7----------------7-7--7----------|


(Guitarra 2)

Parte 1 de 4
   Em
E|-7--------14----14--15--14\---------------|
B|-8----12--15----15------14\---------------|
G|-9----12--16------------------------------|
D|-9----14----------------------------------|
A|-7----------------------------------------|
E|------------------------------------------|

Parte 2 de 4
   Bm
E|-7----------------------------------------|
B|-7----7--------------x-7------------------|
G|-7----7---------7----x-7------------------|
D|-9----9---------9------9------------------|
A|---------9------9-------------------------|
E|------------10--7-------------------------|

Parte 3 de 4
   Em
E|-7----9--9--------------------------------|
B|-8----8--8--------------------------------|
G|-9----9--9--------------------------------|
D|-9----------------------------------------|
A|-7----------------------------------------|
E|------------------------------------------|

Parte 4 de 4
   Bm
E|-7----------------------------------------|
B|-7----------------------------------------|
G|-7----------------------------------------|
D|-9----------------------------------------|
A|-9----------------------------------------|
E|-7----------------------------------------|

   Em
I don't wanna fight no more

I don't wanna fight no more
   Bm
I don't wanna fight no more

I don't wanna fight no more
   Em
I don't wanna fight no more
                            Bm
I don't wanna fight no more


[Segunda Parte]

(Guitarra 1)

Parte 1 de 4
   Em
E|-----------7---------------7--------------|
B|-8/10-8----8----8/10--8----8--------------|
G|-9/11-9----9----9/11--9----9--------------|
D|-----------9---------------9--------------|
A|-----------7---------------7--------------|
E|------------------------------------------|

Parte 2 de 4
   Bm
E|-----------7---------------7--------------|
B|-7h8--7----7----7h8---7----7--------------|
G|-7h9--7----7----7h9---7----7--------------|
D|-----------9---------------9--------------|
A|------------------------------------------|
E|------------------------------------------|

Parte 3 de 4
   Em
E|-----------7---------------7--------------|
B|-8/10-8----8----8/10--8----8--------------|
G|-9/11-9----9----9/11--9----9--------------|
D|-----------9---------------9--------------|
A|-----------7---------------7--------------|
E|------------------------------------------|

Parte 4 de 4
   Bm
E|-----------7---------------7--------------|
B|-7h8--7----7----7h8---7----7--------------|
G|-7h9--7----7----7h9---7----7--------------|
D|-----------9---------------9--------------|
A|------------------------------------------|
E|------------------------------------------|


(Guitarra 2)

Parte 1 de 4
  P.M.  .  .  .  . .  .  . .  .  .  .  . .  .
E|-----------------------------------------------------|
B|-----------------------------------------------------|
G|-----------------------------------------------------|
D|-----------------------------------------------------|
A|-----------------------------------------------------|
E|-5-5--5--5--5--5-7--7--5-5--5--5--5--5-7--7----------|

Parte 2 de 4
  P.M.  .  .  .  . .  .  . .  .  .  .  . .  .
E|-----------------------------------------------------|
B|-----------------------------------------------------|
G|-----------------------------------------------------|
D|-----------------------------------------------------|
A|-----------------------------------------------------|
E|-5-5--5--5--5--5-7--7--5-5--5--5--5--5-7--7----------|

Parte 3 de 4
  P.M.  .  .  .  . .  .  . .  .  .  .  . .  .
E|-----------------------------------------------------|
B|-----------------------------------------------------|
G|-----------------------------------------------------|
D|-----------------------------------------------------|
A|-----------------------------------------------------|
E|-5-5--5--5--5--5-7--7--5-5--5--5--5--5-7--7----------|

Parte 4 de 4
  P.M.  .  .  .  . .  .  . .  .  .  .
E|---------------------------------------7\------------|
B|---------------------------------------8\------------|
G|---------------------------------------9\------------|
D|---------------------------------------9\------------|
A|---------------------------------------7\------------|
E|-5-5--5--5--5--5-7--7--5-5--5--5--5------------------|

           Em
Take from my hand

Put in your hands
              Bm
The fruit of all my grief
 Em
Lying down ain't easy

When everyone is pleasing
   Bm
I can't get no relief


(Guitarra 1)

Parte 1 de 4
   Em
E|-----------7---------------7--------------|
B|-8/10-8----8----8/10--8----8--------------|
G|-9/11-9----9----9/11--9----9--------------|
D|-----------9---------------9--------------|
A|-----------7---------------7--------------|
E|------------------------------------------|

Parte 2 de 4
   Bm
E|-----------7---------------7--------------|
B|-7h8--7----7----7h8---7----7--------------|
G|-7h9--7----7----7h9---7----7--------------|
D|-----------9---------------9--------------|
A|------------------------------------------|
E|------------------------------------------|

Parte 3 de 4
   Em
E|-----------7---------------7--------------|
B|-8/10-8----8----8/10--8----8--------------|
G|-9/11-9----9----9/11--9----9--------------|
D|-----------9---------------9--------------|
A|-----------7---------------7--------------|
E|------------------------------------------|

Parte 4 de 4
   Bm
E|-----------7-------------------14---------|
B|-7h8--7----7----7h8---7--------15---------|
G|-7h9--7----7----7h9---7----9/-------------|
D|-----------9---------------9/-------------|
A|------------------------------------------|
E|------------------------------------------|


(Guitarra 2)

Parte 1 de 4
   Em
E|-0----------------------------------------|
B|-0----------------------------------------|
G|-0----------------------------------------|
D|-2----------------------------------------|
A|-2----------------------------------------|
E|-0----------------------------------------|

Parte 2 de 4
       Bm
E|-0---7------------------------------------|
B|-0---7------------------------------------|
G|-0---7------------------------------------|
D|-----9------------------------------------|
A|-----9------------------------------------|
E|-----7------------------------------------|

Parte 3 de 4
       Em
E|-7\--0------------------------------------|
B|-7\--0------------------------------------|
G|-7\--0------------------------------------|
D|-9\--2------------------------------------|
A|-9\--2------------------------------------|
E|-7\--0------------------------------------|

Parte 4 de 4
       Bm
E|-0---7----------------7\6/7--7------7-----|
B|-0---7----------------7\6/7--7------7-----|
G|-0---7-----------------------7------7-----|
D|-----9---------------------------9--------|
A|-----9--------------------------10--------|
E|-----7------------------------------------|

 Em
Living ain't no fun

The constant dedication
             Bm
Keeping the water and power on
Em
   There ain't nobody left

Why can't I catch my breath?
           Bm
I'm gonna work myself to death


[Segundo Refrão]

Parte 1 de 4
   Em
E|-7--------14----14--15--14\---------------|
B|-8----12--15----15------14\---------------|
G|-9----12--16------------------------------|
D|-9----14----------------------------------|
A|-7----------------------------------------|
E|------------------------------------------|

Parte 2 de 4
   Bm
E|-7----------------------------------------|
B|-7----7--------------7-7------------------|
G|-7----7---------7----9-7------------------|
D|-9----9---------9------9------------------|
A|---------9------9-------------------------|
E|------------10--7-------------------------|

Parte 3 de 4
   Em
E|-7----9--9--------------------------------|
B|-8----8--8--------------------------------|
G|-9----9--9--------------------------------|
D|-9----------------------------------------|
A|-7----------------------------------------|
E|------------------------------------------|

Parte 4 de 4
   Bm
E|-7----------------------------------------|
B|-7----------------------------------------|
G|-7----------------------------------------|
D|-9----------------------------------------|
A|-9----------------------------------------|
E|-7----------------------------------------|


(Guitarra 2)

Parte 1 de 4
   Em7
E|-----------------------------------------------------|
B|-----------------------------------------------------|
G|-----------------------------------------------------|
D|-----------------------------------------------------|
A|-9-9--9--9--9--7-7--7--9-9--9--9--9--7-7--7----------|
E|-----------------------------------------------------|

Parte 2 de 4
   Bm
E|-----------------------------------------------------|
B|-----------------------------------------------------|
G|-----------------------------------------------------|
D|-----------------------------------------------------|
A|-5-5--5--5--5----------5-5--5--5--5------------------|
E|---------------7-7--7----------------7-7--7----------|

Parte 3 de 4
   Em7
E|-----------------------------------------------------|
B|-----------------------------------------------------|
G|-----------------------------------------------------|
D|-----------------------------------------------------|
A|-9-9--9--9--9--7-7--7--9-9--9--9--9--7-7--7----------|
E|-----------------------------------------------------|

Parte 4 de 4
   Bm
E|-----------------------------------------------------|
B|-----------------------------------------------------|
G|-----------------------------------------------------|
D|-----------------------------------------------------|
A|-5-5--5--5--5----------5-5--5--5--5------------------|
E|---------------7-7--7----------------7-7--7----------|

   Em
I don't wanna fight no more

I don't wanna fight no more
   Bm
I don't wanna fight no more

I don't wanna fight no more
   Em
I don't wanna fight no more
                            Bm
I don't wanna fight no more


[Interlúdio]

(Guitarra 1)

Parte 1 de 2
  P.M.  .  .  .  . .  .  . .  .  .  .  . .  .
E|-----------------------------------------------------|
B|-----------------------------------------------------|
G|-----------------------------------------------------|
D|-----------------------------------------------------|
A|-9-9--9--9--9--7-7--7--9-9--9--9--9--7-7--7----------|
E|-----------------------------------------------------|

Parte 2 de 2
  P.M.  .  .  .  . .  .  . .  .  .  .  . .  .
E|-----------------------------------------------------|
B|-----------------------------------------------------|
G|-----------------------------------------------------|
D|-----------------------------------------------------|
A|-5-5--5--5--5----------5-5--5--5--5------------------|
E|---------------7-7--7----------------7-7--7----------|


(Guitarra 2)

Parte 1 de 2
  P.M.  .  .  .  . .  .  . .  .  .  .  . .  .
E|-----------------------------------------------------|
B|-----------------------------------------------------|
G|-----------------------------------------------------|
D|-----------------------------------------------------|
A|-----------------------------------------------------|
E|-5-5--5--5--5--5-7--7--5-5--5--5--5--5-7--7----------|

Parte 2 de 2
  P.M.  .  .  .  . .  . . . .  . .  .  .  .
E|-----------------------------------------------------|
B|-----------------------------------------------------|
G|-----------------------------------------------------|
D|-----------------------------------------------------|
A|----------------------5------------------------------|
E|-5-5--5--5--5--5-7--7---7-5--5-5--5--5--7------------|


[Solo]

(Guitarra Solo 1)

Parte 1 de 2
E|-----------------------------------------------------|
B|--------12--14--15b17r-------------------------------|
G|-11h14-----------------------------------------------|
D|-----------------------------------------------------|
A|-----------------------------------------------------|
E|-----------------------------------------------------|

Parte 2 de 2
E|-----------------------------------------------------|
B|--------12--14---------------------------------------|
G|-11h14----------14b16r-------------------------------|
D|-----------------------------------------------------|
A|-----------------------------------------------------|
E|-----------------------------------------------------|

(Guitarra Solo 2)

Parte 1 de 2
E|-----------------------------------------------------|
B|-----------------------------------------------------|
G|---------7--9b11r------------------------------------|
D|------9----------------------------------------------|
A|-7h9-------------------------------------------------|
E|-----------------------------------------------------|

Parte 2 de 2
E|-----------------------------------------------------|
B|-----------------------------------------------------|
G|---------7--9b11r------------------------------------|
D|------9----------------------------------------------|
A|-7h9-------------------------------------------------|
E|-----------------------------------------------------|


[Refrão Final]

   Em
I don't wanna fight no more

I don't wanna fight no more
   Bm
I don't wanna fight no more

I don't wanna fight no more
   Em
I don't wanna fight no more

I don't wanna fight no more
   Bm
I don't wanna fight no more

I don't wanna fight, I don't wanna fight
   Em
I don't wanna fight no more

I don't wanna fight no more
   Bm
I don't wanna fight no more

I don't wanna fight no more
   Em
I don't wanna fight no more

I don't wanna fight no more
   Bm
I don't wanna fight no more

I don't wanna fight no more
Acordes para:
    Composição: Brittany Howard Colaboração e revisão:
    • Vinícius Dias
    • Luiz Guerra

    0 comentários

    mostrar mais comentários

    Conseguiu tocar?

    2 tocaram 1 ainda não

    Grave um vídeo tocando Don't Wanna Fight e mande pra gente!

    00:00 / 00:00
    outros vídeos desta música
    repetir qualidade Automático
    Outros vídeos desta música
    00:00 / 00:00
    Automático
    Capítulos
    • Tocando a música
    • Apresentação / Equipamentos
    • Afinação
    • Dicas música e efeitos
    • Dicas introdução
    • Acordes introdução
    • Tocando introdução
    • Introdução 1 - Guitarra 1
    • Introdução 2 - Guitarra 1
    • Introdução 1 - Guitarra 2
    • Introdução 2 - Guitarra 2
    • Dicas primeira parte
    • Tocando primeira parte
    • Primeira Parte - Guitarra 1
    • Primeira Parte - Guitarra 2
    • Dicas primeiro refrão
    • Tocando primeiro refrão
    • Primeiro Refrão - Guitarra 1
    • Primeiro Refrão - Guitarra 2
    • Dicas Segunda Parte
    • Acordes Segunda Parte
    • Tocando Segunda Parte
    • Segunda Parte - Guitarra 1
    • Segunda Parte - Guitarra 2
    • Dicas Segundo Refrão
    • Tocando Segundo Refrão e Interlúdio
    • Interlúdio - Guitarra 1
    • Interlúdio - Guitarra 2
    • Dicas Solo
    • Tocando Solo
    • Solo - Guitarra 1
    • Solo - Guitarra 2
    • Encerramento
    OK