Cifra Club

Aprenda

Future People

Alabama Shakes

Cifra: Principal (violão e guitarra)
tom: A
[Intro]

E|---------------------------------|---------------------------------|
B|---------------------------------|---------------------------------|
G|---------------------------------|---------6---4-------------------|
D|-------4---------4---4---------4-|-----4---4---4---------4---------|
A|---4-7-------4-7-----------4-7-4-|-------------------4-7-4-----4-7-|
E|-5---------5-------------5-------|---5---5---------5---------5-----|
   1 e & a 2 e & a 3 e & a 4 e & a   1 e & a 2 e & a 3 e & a 4 e & a

E|---------------------------------|---------------------------------|
B|---------------------------------|---------------------------------|
G|---------------------------------|---------6---4-------------------|
D|-------4---------4---4-----4---4-|-----4---4---4---------4---------|
A|---4-7-4-----4-7-4---4-------7---|---4---4-----------4-7-4-----4-7-|
E|-5---------5-------------5-------|-5---------------5---------5-----|
   1 e & a 2 e & a 3 e & a 4 e & a   1 e & a 2 e & a 3 e & a 4 e & a

E|---------------------------------|---------------------------------|
B|---------------------------------|---------------------------------|
G|---------------------------6---4-|-----------------4h6-----4-------|
D|-------4---------4---4---7---4---|-------4-----4---4---4-7---7-4---|
A|---4-7-4-----4-7-4---4-----------|---4-7-4---7-------------------5-|
E|-5---------5---------------------|-5-------------------------------|
   1 e & a 2 e & a 3 e & a 4 e & a   1 e & a 2 e & a 3 e & a 4 e & a

E|---------------------------------|---------------------------------|
B|---------------------------------|---------------------------------|
G|-------4-4-------4---4---6---4---|-------4---------4h7-4-----4-----|
D|---4-7-4-4---4-7-4---4---4---4---|---4-7-4-----4-7-4-----4-7---7-4-|
A|-5---------5---------------------|-5---------5---------------------|
E|---------------------------------|---------------------------------|
   1 e & a 2 e & a 3 e & a 4 e & a   1 e & a 2 e & a 3 e & a 4 e & a

E|---------------------------------|---------------------------------|
B|---------------------------------|---------------------------------|
G|-------------------------6---4---|---------------------------------|
D|-------4---------4---4---4---4---|-------4---------4-------7----(7)|
A|---4-7-4-----4-7-4---4-----------|---4-7-4-----4-7-4---4-----------|
E|-5---------5---------------------|-5---------5---------------------|
   1 e & a 2 e & a 3 e & a 4 e & a   1 e & a 2 e & a 3 e & a 4 e & a

[Primeira Parte]

   Some            want    to  see
E|---------------------------------|---------------------------5-----|
B|-----5-7-------5-7---7---7---5-7-|-----5-7-------5-7---7---7---7---|
G|---6---------6-------------6-----|---6---------6-------------------|
D|-7---------7---------------------|-7---------7---------------------|
A|---------------------------------|---------------------------------|
E|---------------------------------|---------------------------------|
   1 e & a 2 e & a 3 e & a 4 e & a   1 e & a 2 e & a 3 e & a 4 e & a

   Those       who've gone above
E|---------------------------------|-------------------5-------------|
B|-----5-7-------5-7---7---5---5---|-----5-7-------5-7---7---5-7-----|
G|---6---------6-------------6---6-|---6---------6---------6-----6---|
D|-7---------7---------------------|-7---------7---------------------|
A|---------------------------------|---------------------------------|
E|---------------------------------|---------------------------------|
   1 e & a 2 e & a 3 e & a 4 e & a   1 e & a 2 e & a 3 e & a 4 e & a

   Friends         that    they lost
E|--------7----------7---7-----------7-|--------7----------7---7------7------|
B|---7-10-------7-10---------10-7-10---|---7-10-------7-10-------7-10---10-7-|
G|-7----------7------------------------|-7----------7------------------------|
D|-------------------------------------|-------------------------------------|
A|-------------------------------------|-------------------------------------|
E|-------------------------------------|-------------------------------------|
   1 e  & a 2 e &  a 3 e & a  4 e  & a   1 e  & a 2 e &  a 3 e & a  4 e  & a

   People                  they love
E|---------------------------------|---------------------------5-----|
B|-----5-7-------5-7---7---7---5-7-|-----5-7-------5-7---7---7---7---|
G|---6---------6-------------6-----|---6---------6-------------------|
D|-7---------7---------------------|-7---------7---------------------|
A|---------------------------------|---------------------------------|
E|---------------------------------|---------------------------------|
   1 e & a 2 e & a 3 e & a 4 e & a   1 e & a 2 e & a 3 e & a 4 e & 

   I'd             rather      meet
E|---------------------------------|---------------------------5-----|
B|-----5-7-------5-7---7---7---5-7-|-----5-7-------5-7---7---7---7---|
G|---6---------6-------------6-----|---6---------6-------------------|
D|-7---------7---------------------|-7---------7---------------------|
A|---------------------------------|---------------------------------|
E|---------------------------------|---------------------------------|
   1 e & a 2 e & a 3 e & a 4 e & a   1 e & a 2 e & a 3 e & a 4 e & 

   Freedom                 than roam
E|---------------------------------|-------------------5-------------|
B|-----5-7-------5-7---7---7---5-7-|-----5-7-------5-7---7---5-7-----|
G|---6---------6-------------6-----|---6---------6---------6-----6---|
D|-7---------7---------------------|-7---------7---------------------|
A|---------------------------------|---------------------------------|
E|---------------------------------|---------------------------------|
   1 e & a 2 e & a 3 e & a 4 e & a   1 e & a 2 e & a 3 e & a 4 e & 

To lead            me through the fog
E|--------7----------7---7-----------7-|--------7----------7-10-7------7------|
B|---7-10-------7-10---------10-7-10---|---7-10-------7-10--------7-10---10-7-|
G|-7----------7------------------------|-7----------7-------------------------|
D|-------------------------------------|--------------------------------------|
A|-------------------------------------|--------------------------------------|
E|-------------------------------------|--------------------------------------|
   1 e  & a 2 e &  a 3 e & a  4 e  & a   1 e  & a 2 e &  a 3 e & a   4 e  & a

   Couldn't        ask     for more
E|---------------------------------|---------------------------5-----|
B|-----5-7-------5-7---7---7---5-7-|-----5-7-------5-7---7---7---7---|
G|---6---------6-------------6-----|---6---------6-------------------|
D|-7---------7---------------------|-7---------7---------------------|
A|---------------------------------|---------------------------------|
E|---------------------------------|---------------------------------|
   1 e & a 2 e & a 3 e & a 4 e & a   1 e & a 2 e & a 3 e & a 4 e & 

[Refrão]

                           Children                          Take or leave it
E|---------------------------------|---------------------------------|
B|---------------------------------|---------------------------------|
G|-------------------------6---4---|-------------------------6-6-4-4-|
D|-------4---------4---4---4---4---|-------4---------4---------------|
A|---4-7-4-----4-7-4---4-----------|---4-7-4-----4-7-4---4-----------|
E|-5---------5---------------------|-5---------5---------------------|
   1 e & a 2 e & a 3 e & a 4 e & a   1 e & a 2 e & a 3 e & a 4 e & a

                       Come, people            You got to give a little, get a little
E|---------------------------------|---------------------------------|
B|---------------------------------|---------------------------------|
G|-------------------------6---6---|-----------------6-6-4-4---------|
D|-------4---------4---4---4---4---|---4---4-4---------------7-7-4-4-|
A|---4-7-4-----4-7-4---4-----------|-7---7-------4-7-----------------|
E|-5---------5---------------------|-----------5---------------------|
   1 e & a 2 e & a 3 e & a 4 e & a   1 e & a 2 e & a 3 e & a 4 e & a

                       And see it                        Like future
E|---------------------------------|---------------------------------|
B|---------------------------------|---------------------------------|
G|-------4---------4---4---6---4---|-------4-4-------4h7p4-----------|
D|---4-7-4-----4-7-4---4---4---4---|---4-7-------4-7---------4h7-4---|
A|-5---------5---------------------|-5---------5-------------------5-|
E|---------------------------------|---------------------------------|
   1 e & a 2 e & a 3 e & a 4 e & a   1 e & a 2 e & a 3 e & a 4 e & a

                           people
E|---------------------------------|---------------------------------|
B|---------------------------------|---------------------------------|
G|-------------------------6---4---|---------------------------------|
D|-------4---------4---4---4---4---|-------4---------4---4---4-------|
A|---4-7-4-----4-7-4---4-----------|---4-7-4-----4-7-4---4-----4-----|
E|-5---------5---------------------|-5---------5-----------------5p4-|
   1 e & a 2 e & a 3 e & a 4 e & a   1 e & a 2 e & a 3 e & a 4 e & a

[Interlúdio]

E|---------------------------------|---------------------------------|
B|-0/2---------0/2-----------------|-0/2---------0/2-----------------|
G|-1/2---------1/2-----------------|-1/2---------1/2-----------------|
D|-2/4---------2/4-----------------|-2/4---------2/4-----------------|
A|-2/4---------2/4-----------------|-2/4---------2/4-----------------|
E|-0/2---------0/2-----------------|-0/2---------0/2-----------------|
   1 e & a 2 e & a 3 e & a 4 e & a   1 e & a 2 e & a 3 e & a 4 e & a

E|---------------------------------|---------------------------------|
B|-0/2---------0/2-----------------|-0/2---------0/2-----------------|
G|-1/2---------1/2-----------------|-1/2---------1/2-----------------|
D|-2/4---------2/4-----------------|-2/4---------2/4-----------------|
A|-2/4---------2/4-----------------|-2/4---------2/4-----------------|
E|-0/2---------0/2-----------------|-0/2---------0/2-----------------|
   1 e & a 2 e & a 3 e & a 4 e & a   1 e & a 2 e & a 3 e & a 4 e & a

[Segunda Parte]

   Some            things  could be
E|---------------------------------|---------------------------5-----|
B|-----5-7-------5-7---7---7---5-7-|-----5-7-------5-7---7---7---7---|
G|---6---------6-------------6-----|---6---------6-------------------|
D|-7---------7---------------------|-7---------7---------------------|
A|---------------------------------|---------------------------------|
E|---------------------------------|---------------------------------|
   1 e & a 2 e & a 3 e & a 4 e & a   1 e & a 2 e & a 3 e & a 4 e & a

   Seen            from    above
E|---------------------------------|-------------------5-------------|
B|-----5-7-------5-7---7---5---5---|-----5-7-------5-7---7---5-7-----|
G|---6---------6-------------6---6-|---6---------6---------6-----6---|
D|-7---------7---------------------|-7---------7---------------------|
A|---------------------------------|---------------------------------|
E|---------------------------------|---------------------------------|
   1 e & a 2 e & a 3 e & a 4 e & a   1 e & a 2 e & a 3 e & a 4 e & a

   Thread          of      design
E|--------7----------7---7-----------7-|--------7----------7-10-7------7------|
B|---7-10-------7-10---------10-7-10---|---7-10-------7-10--------7-10---10-7-|
G|-7----------7------------------------|-7----------7-------------------------|
D|-------------------------------------|--------------------------------------|
A|-------------------------------------|--------------------------------------|
E|-------------------------------------|--------------------------------------|
   1 e  & a 2 e &  a 3 e & a  4 e  & a   1 e  & a 2 e &  a 3  e & a  4 e  & a

   Don't           trip    me up
E|---------------------------------|-------------------5-------------|
B|-----5-7-------5-7---7---5---5---|-----5-7-------5-7---7---5-7-----|
G|---6---------6-------------6---6-|---6---------6---------6-----6---|
D|-7---------7---------------------|-7---------7---------------------|
A|---------------------------------|---------------------------------|
E|---------------------------------|---------------------------------|
   1 e & a 2 e & a 3 e & a 4 e & a   1 e & a 2 e & a 3 e & a 4 e & a

[Refrão]

                           Children                          Take or leave it
E|---------------------------------|---------------------------------|
B|---------------------------------|---------------------------------|
G|-------------------------6---4---|-------------------------6-6-4-4-|
D|-------4---------4---4---4---4---|-------4---------4---------------|
A|---4-7-4-----4-7-4---4-----------|---4-7-4-----4-7-4---4-----------|
E|-5---------5---------------------|-5---------5---------------------|
   1 e & a 2 e & a 3 e & a 4 e & a   1 e & a 2 e & a 3 e & a 4 e & a

                       Come, people            You got to give a little, get a little
E|---------------------------------|---------------------------------|
B|---------------------------------|---------------------------------|
G|-------------------------6---6---|-----------------6-6-4-4---------|
D|-------4---------4---4---4---4---|---4---4-4---------------7-7-4-4-|
A|---4-7-4-----4-7-4---4-----------|-7---7-------4-7-----------------|
E|-5---------5---------------------|-----------5---------------------|
   1 e & a 2 e & a 3 e & a 4 e & a   1 e & a 2 e & a 3 e & a 4 e & a

                       And see it                        Like future
E|---------------------------------|---------------------------------|
B|---------------------------------|---------------------------------|
G|-------4---------4---4---6---4---|-------4-4-------4h7p4-----------|
D|---4-7-4-----4-7-4---4---4---4---|---4-7-------4-7---------4h7-4---|
A|-5---------5---------------------|-5---------5-------------------5-|
E|---------------------------------|---------------------------------|
   1 e & a 2 e & a 3 e & a 4 e & a   1 e & a 2 e & a 3 e & a 4 e & a

                           people
E|---------------------------------|---------------------------------|
B|---------------------------------|---------------------------------|
G|-------------------------6---4---|---------------------------------|
D|-------4---------4---4---4---4---|-------4---------4---4---4-------|
A|---4-7-4-----4-7-4---4-----------|---4-7-4-----4-7-4---4-----4-----|
E|-5---------5---------------------|-5---------5-----------------5p4-|
   1 e & a 2 e & a 3 e & a 4 e & a   1 e & a 2 e & a 3 e & a 4 e & a

[Interlúdio]

                                                             Listen to teachers
E|---------------------------------|---------------------------------|
B|-0/2---------0/2-----------------|-0/2---------0/2-----------------|
G|-1/2---------1/2-----------------|-1/2---------1/2-----------------|
D|-2/4---------2/4-----------------|-2/4---------2/4-----------------|
A|-2/4---------2/4-----------------|-2/4---------2/4-----------------|
E|-0/2---------0/2-----------------|-0/2---------0/2-----------------|
   1 e & a 2 e & a 3 e & a 4 e & a   1 e & a 2 e & a 3 e & a 4 e & a

                           Imagine a sound                   Listen loud
E|---------------------------------|---------------------------------|
B|-0/2---------0/2-----------------|---------------------------------|
G|-1/2---------1/2-----------------|-7\4---------7\4-----------------|
D|-2/4---------2/4-----------------|-7\4---------7\4-----------------|
A|-2/4---------2/4-----------------|-5\2---------5\2-----------------|
E|-0/2---------0/2-----------------|---------------------------------|
   1 e & a 2 e & a 3 e & a 4 e & a   1 e & a 2 e & a 3 e & a 4 e & a

                   And then they'll reach the top
E|---------------------------------|---------------------------------|
B|---------------------------------|---------------------------------|
G|-7\4---------7\4-----------------|---------------------------------|
D|-7\4---------7\4-----------------|-6/7---------6/7-----------------|
A|-5\2---------5\2-----------------|-6/7---------6/7-----------------|
E|---------------------------------|-4/5---------4/5-----------------|
   1 e & a 2 e & a 3 e & a 4 e & a   1 e & a 2 e & a 3 e & a 4 e & a

E|---------------------------------|---------------------------------|
B|---------------------------------|---------------------------------|
G|---------------------------------|---------------------------------|
D|-6/7---------6/7-----------------|-6/7---------6/7-----------------|
A|-6/7---------6/7-----------------|-6/7---------6/7-----------------|
E|-4/5---------4/5-----------------|-4/5---------4/5-----------------|
   1 e & a 2 e & a 3 e & a 4 e & a   1 e & a 2 e & a 3 e & a 4 e & a
Composição de Brittany Howard
Colaboração e revisão:
  • Diego Felipe
1.318 exibições
    • ½ Tom
    • A
    • Bb
    • B
    • C
    • Db
    • D
    • Eb
    • E
    • F
    • F#
    • G
    • Ab
  • Adicionar à lista

    0 comentários

    Ver todos os comentários

    Conseguiu tocar?

    0 Tocaram 1 Ainda não

    Grave um vídeo tocando Future People e nos envie!

    00:00 / 00:00
    Outros vídeos desta música
    Repetir Qualidade Automático
    Outros vídeos desta música
    00:00 / 00:00
    Automático

    Cifra Club Pro

    Aproveite o Cifra Club com benefícios exclusivos e sem anúncios
    Cifra Club Pro
    Aproveite o Cifra Club com benefícios exclusivos e sem anúncios
    OK