Summertime Blues Intro

Alan Jackson

tom: F
tab by Screwcork
  
e|----------------------------------------|
B|----------------------------------------|
G|----------------------------------------|
D|-2h3-3-3-2h3-3-3-0---0------------------|
A|-------------------3---3-0--------------|
E|---------------------------1------------|

e|----------------------------------------|
B|----------------------------------------|
G|----------------------------------------|
D|-2h3-3-3-2h3-3-3-0----------------------|
A|-------------------3-0------------------|
E|-----------------------1----------------|

Play the whole thing twice and your home free!

It's as simple as that!! I dont know if this is
the exact same version as the CD, but you can 
just move it up or down the fretboard to make it 
fit!

Please rate it!
Página 1 / 1

Letras e título
Acordes e artista

resetar configurações
OK