Cifra Club

Professional Torturer

Alanis Morissette

Cifra: Principal
exibições 108
Tom: B (com acordes na forma de A) Capotraste na 2ª casa
Riff 1:


E|-5-----5-------4-----4--------3-----3-------2-----|
B|-5---5---------5---5----------3---3---------2-----|
G|---2-----2-------2-----2--------2-----2-----------|
D|--------------------------------------------------|
A|--------------------------------------------------|
E|--------------------------------------------------|

(Riff 1)

Infatuation
Court well meant
'Cause I'm the easiest to sway
Catch my fancy and commitment
Riding fresh can stay

One by one conditions change
Slippery slope yields sheckled face and
Gone are the days of snare and twill
An admission to sexy hell


Riff 2:

E|-5-------7-------5--------------------------------|
B|-5---5---5---5---5--------------------------------|
G|---2-------2--------------------------------------|
D|--------------------------------------------------|
A|--------------------------------------------------|
E|--------------------------------------------------|

(Riff 2)

I don't my crown and moniker claim as professional torturer
As me a culprit I renounce my name
Professional torturer


(Riff 1)

Eyebrows raise and façades do fade
Poised refrained as peculiate
Hands still hold but gazes abate
This masochism enfolds me


(Riff 2)

I don't my crown and moniker claim as professional torturer
As me a culprit I renounce my name
Professional torturer

I don't my crown and moniker claim as professional torturer
For you my boy I renounce my name
Professional torturer
Acordes para:
    Colaboração e revisão:
    • gabriela franchi

    0 comentários

      mostrar mais comentários

      Conseguiu tocar?

      0tocaram0ainda não

      Grave um vídeo tocando Professional Torturer e mande pra gente!

      00:00 / 00:00
      outros vídeos desta música
      repetirqualidadeautomática
      Outro vídeos desta música
        00:00 / 00:00
        automática
        OK