Anunciação

Alceu Valença

Composição de: Alceu Valença
tom: G
[Intro] G  Am  C  G  Am  C  G

[Parte 01 De 05]

   G
E|------------------------------------------|
B|-3-------3-------3------------------------|
G|-0-------0-------0------------------------|
D|-0-------0-------0------------------------|
A|------------------------------------------|
E|---3-3-----3-3-----3-3--------------------|

[Parte 02 De 05]

E|-3-5-7-7/8-7-5-------5---5----------------|
B|---------------8-5-8---8------------------|
G|-------0----------------------------------|
D|------------------------------------------|
A|------------------------------------------|
E|------------------------------------------|

[Parte 03 De 05]

   Am
E|------------------5-7-8-7-5---------------|
B|-5-------5------8-----------8-------------|
G|-5-------5--------------------------------|
D|-7-------7--------------------------------|
A|---0-0-----0-0----0-0-----0-0-------------|
E|------------------------------------------|

[Parte 04 De 05]

               G
E|-0-7-5-3-3--------------------------------|
B|-------------3-------3--------------------|
G|-----0-------0-------0--------------------|
D|-------------0-------0--------------------|
A|-----3------------------------------------|
E|---------------3-3-----3-3----------------|

[Parte 02 De 05]

E|-3-5-7-7/8-7-5-------5---5----------------|
B|---------------8-5-8---8------------------|
G|-------0----------------------------------|
D|------------------------------------------|
A|------------------------------------------|
E|------------------------------------------|

[Parte 03 De 05]

   Am
E|------------------5-7-8-7-5---------------|
B|-5-------5------8-----------8-------------|
G|-5-------5--------------------------------|
D|-7-------7--------------------------------|
A|---0-0-----0-0----0-0-----0-0-------------|
E|------------------------------------------|

[Parte 05 De 05]

               G
E|-0-7-5-3-3--------------------------------|
B|-------------3-------3-------3------------|
G|-----0-------0-------0-------0------------|
D|-------------0-------0-------0------------|
A|-----3------------------------------------|
E|---------------3-3-----3-3-----3-3--------|


[Primeira Parte]

                        (pausa)
Na bruma leve das paixões
            Am
Que vêm de dentro
                          C
Tu vens chegando pra brincar
            G
No meu quintal

No teu cavalo, peito nu
           Am
Cabelo ao vento
                         C             
E o Sol quarando nossas roupas
      G
No varal


Na bruma leve das paixões
            Am
Que vêm de dentro
                          C
Tu vens chegando pra brincar
            G
No meu quintal

No teu cavalo, peito nu
           Am
Cabelo ao vento
                         C             
E o Sol quarando nossas roupas
      G
No varal

[Refrão]

    G        Em
Tu vens, tu vens
F          C              G
  Eu já escuto os teus sinais
             Em
Tu vens, tu vens
F          C              G
  Eu já escuto os teus sinais


[Segunda Parte]

         (pausa)                  Am
A voz do anjo sussurrou no meu ouvido
                    C
Eu não duvido já escuto
           G
Os teus sinais
                               Am
Que tu virias numa manhã de domingo
                     C            G 
Eu te anuncio nos sinos das catedrais

[Refrão]

    G        Em
Tu vens, tu vens
F          C              G
  Eu já escuto os teus sinais
    G        Em
Tu vens, tu vens
F          C              G
  Eu já escuto os teus sinais

[Intro] G  Am  C  G  Am  C  G


[Primeira Parte]

          (pausa)
Na bruma leve das paixões
            Am
Que vêm de dentro
                          C
Tu vens chegando pra brincar
            G
No meu quintal

No teu cavalo, peito nu
           Am
Cabelo ao vento
                         C             
E o Sol quarando nossas roupas
      G
No varal

[Refrão]

    G        Em
Tu vens, tu vens
F          C              G
  Eu já escuto os teus sinais
             Em
Tu vens, tu vens
F          C              G
  Eu já escuto os teus sinais

[Segunda Parte]

         (pausa)                  Am
A voz do anjo sussurrou no meu ouvido
                    C
Eu não duvido já escuto
           G
Os teus sinais
                               Am
Que tu virias numa manhã de domingo
                     C           G 
Eu te anuncio nos sinos das catedrais

[Refrão]

    G        Em
Tu vens, tu vens
F          C              G
  Eu já escuto os teus sinais
    G        Em
Tu vens, tu vens
F          C              G
  Eu já escuto os teus sinais

[Intro 2x] G  Am  C  G  Am  C  G


[Primeira Parte - Dedilhado]

Parte 01 De 03[4x]

   Am
E|-------5----------------------------------|
B|-----5-5----------------------------------|
G|---5-5-----5---5--------------------------|
D|-----7-------7----------------------------|
A|------------------------------------------|
E|-5-------5--------------------------------|

[Parte 02 De 03]

   C
E|-------0----------------------------------|
B|-----1-1----------------------------------|
G|---0-0-----0---0--------------------------|
D|-----2-------0----------------------------|
A|-3-------3--------------------------------|
E|------------------------------------------|

Parte 03 De 03[5x]

   G
E|-------3----------------------------------|
B|-----3-3----------------------------------|
G|---0-0-----0---0--------------------------|
D|-----0-------0----------------------------|
A|------------------------------------------|
E|-3-------3--------------------------------|

[Refrão - Dedilhado]


Parte 01 De 04[2x]

   G
E|-------3----------------------------------|
B|-----3-3----------------------------------|
G|---0-0-----0---0--------------------------|
D|-----0-------0----------------------------|
A|------------------------------------------|
E|-3-------3--------------------------------|
       ↓

Parte 02 De 04[2x]

   Em
E|-------0----------------------------------|
B|-----0-0----------------------------------|
G|---0-0-----0---0--------------------------|
D|-----2-------2----------------------------|
A|------------------------------------------|
E|-0-------0--------------------------------|
       ↓

[Parte 03 De 04]

   F
E|-------1----------------------------------|
B|-----1-1----------------------------------|
G|---2-2-----2---2--------------------------|
D|-----3-------3----------------------------|
A|------------------------------------------|
E|-1-------1--------------------------------|


[Parte 04 De 04]

   C
E|-------0----------------------------------|
B|-----1-1----------------------------------|
G|---0-0-----0---0--------------------------|
D|-----2-------0----------------------------|
A|-3-------3--------------------------------|
E|------------------------------------------|
       ↓

Parte 01 De 04[2x]

   G
E|-------3----------------------------------|
B|-----3-3----------------------------------|
G|---0-0-----0---0--------------------------|
D|-----0-------0----------------------------|
A|------------------------------------------|
E|-3-------3--------------------------------|
       ↓
Página 1 / 1

Letras e título
Acordes e artista

resetar configurações
OK