Cifra Club

Anunciação

Alceu Valença

Tab de baixo: Estudio
[Intro]

G|-----------|
D|-----5-----| (8x)
A|---5-------|
E|-------3---|

[Versos]

G|---------------------------------------------------|
D|------------------------------5--------------------|
A|------------7---7---7---7-3-3-------5---5---5---5--|
E|—0-3-0-5--5---5---5---5---------3-3---3---3---3----|

[Refrão]

G|--------------------------------------------|
D|------5---5----5---5---2---0/2-0/2-0--------|
A|------------------------------------3---3---|
E|--3-3---3---3---3----0---0------------5---5-|
00:00 / 00:00
Outros vídeos desta música
Repetir
Outros vídeos desta música
Composição de Alceu Valença
Colaboração e revisão:
  • José Santos
226 exibições

0 comentários

Ver todos os comentários

Conseguiu tocar?

0 Tocaram 0 Ainda não

Grave um vídeo tocando Anunciação e nos envie!

Entre para oCifra Club PRO

Tenha acesso a benefícios exclusivos no App e no Site

  • Chega de anúncios

  • Prioridade de compra em lançamentos

  • Mais recursos no app do Afinador

  • Atendimento Prioritário

  • Descontos nos produtos Cifra Club

  • Ajude a produzir mais conteúdo

00:00 / 00:00

Cifra Club Pro

Aproveite o Cifra Club com benefícios exclusivos e sem anúncios
Cifra Club Pro
Aproveite o Cifra Club com benefícios exclusivos e sem anúncios
OK