Cifra Club

Aprenda

Anunciação

Alceu Valença

Cifra: Versao-ukulele (violão e guitarra)
Já pensou em usar uma coleção de roupas do Cifra Club? Responda as perguntas abaixo e nos ajude nessa missão! →
tom: G
Parte 1

A|----0--2--3--2--0-----------0-----0--0------|
E|----------------------0---------------------|
G|--------------------------------------------|
G|--0----------------0-----0-----0------------|

A|----0--2--3--2--0--------2--0---------------|
E|----------------------0---------------------|
G|--------------------------------------------|
G|--0----------------0-----------0---0--------|

A|----0--2--3--2--0-----------0-----0--0------|
E|----------------------0---------------------|
G|--------------------------------------------|
G|--0----------------0-----0-----0------------|

A|----0--2--3--2--0--------2--0---------------|
E|----------------------0---------------------|
G|--------------------------------------------|
G|--0----------------0-----------0---0--------|



Parte 2

A|----5--7--2--0--3--2--------0---------------|
E|----------------------0---------------------|
G|--------------------------------------------|
G|--0----------------------0-----0---0--------|

A|----5--7--2--0--3--2--------0---------------|
E|----------------------0---------------------|
G|--------------------------------------------|
G|--0----------------------0-----0---0--------|
Composição de Alceu Valença
Colaboração e revisão:
  • Luis Fernando
354 exibições
  • Simplificar cifra
    • ½ Tom
    • A
    • Bb
    • B
    • C
    • Db
    • D
    • Eb
    • E
    • F
    • F#
    • G
    • Ab
  • Adicionar à lista

    0 comentários

    Ver todos os comentários
    00:00 / 00:00
    Outros vídeos desta música
    Repetir Qualidade Automático
    Outros vídeos desta música
    00:00 / 00:00
    Automático

    Cifra Club Pro

    Aproveite o Cifra Club com benefícios exclusivos e sem anúncios
    Cifra Club Pro
    Aproveite o Cifra Club com benefícios exclusivos e sem anúncios
    OK