Cifra Club

Morena Tropicana

Alceu Valença

Cifra: Principal (violão e guitarra)
exibições 834.905
Tom: Bm
[Intro] Bm  F#m  Em  F#7
        Bm  F#m  Em  F#7

Bm                                F#m
 Da manga rosa quero o gosto e o sumo
         Em        F#7  Bm
Melão maduro, sapoti, juá
                         F#m
Jaboticaba, teu olhar noturno
          Em        F#7  Bm
Beijo travoso de umbú cajá
        A     G          D
Pele macia é carne de caju
        A          G              D
Saliva doce, doce mel, mel de uruçú

       C#m7(b5)      F#7         Bm
Linda morena, fruta de vez temporana
       Bm/F#     C#m7(b5) F#7          Bm
Caldo de cana caiana,    vem me desfrutar
       C#m7(b5)      F#7         Bm
Linda morena, fruta de vez temporana
       Bm/F#     C#m7(b5) F#7          Bm
Caldo de cana caiana,    vou te desfrutar

             Bm                     F#m
Morena tropicana, eu quero o teu sabor
Em  F#7     Bm
oi, oi, oi, oi
             Bm                     F#m
Morena tropicana, eu quero o teu sabor
Em  F#7     Bm
oi, oi, oi, oi

Bm                                F#m
 Da manga rosa quero o gosto e o sumo
         Em        F#7  Bm
Melão maduro, sapoti, juá
                         F#m
Jaboticaba, teu olhar noturno
          Em        F#7  Bm
Beijo travoso de umbú cajá
        A     G          D
Pele macia é carne de caju
        A          G              D
Saliva doce, doce mel, mel de uruçú

         C#m7(b5)    F#7         Bm
Linda morena, fruta de vez temporana
       Bm/F#     C#m7(b5) F#7          Bm
Caldo de cana caiana,    vou te desfrutar
         C#m7(b5)    F#7         Bm
Linda morena, fruta de vez temporana
       Bm/F#     C#m7(b5) F#7          Bm
Caldo de cana caiana,    vem te desfrutar

             Bm                     F#m
Morena tropicana, eu quero o teu sabor
Em  F#7     Bm
oi, oi, oi, oi
             Bm                     F#m
Morena tropicana, eu quero o teu sabor
Em  F#7     Bm
oi, oi, oi, oi

[Solo]

E|---------------------------------------------------|------------------------------|
B|--------12-14-14b15-15-15r14-12----12-12h14p12-----|-----15-17-17b19-19r17-15-----|
G|--11-14-------------------------14-------------14--|--14----------------------16--|
D|---------------------------------------------------|------------------------------|
A|---------------------------------------------------|------------------------------|
E|---------------------------------------------------|------------------------------|

E|-------------------------------------------|------------------------------|
B|--14/15--14-14b15r14-12----12-12h14p12-----|-----15-17-17b19-19r17-15-----|
G|------------------------14-------------14--|--14----------------------16--|
D|-------------------------------------------|------------------------------|
A|-------------------------------------------|------------------------------|
E|-------------------------------------------|------------------------------|

E|------------------------------|------------------------------|
B|--------------14-17b19r17-15--|--15-15-14-14-----------------|
G|--16-16-14-14-----------------|--------------16-14-14b16r11--|
D|------------------------------|------------------------------|
A|------------------------------|------------------------------|
E|------------------------------|------------------------------|

E|--------------------------|-------8-9-8-9/12-8-------------|
B|--------------------------|--9-12--------------9-7---------|
G|--11b12-12-11-11-11-9-----|------------------------11-9-7--|
D|----------------------12--|--------------------------------|
A|--------------------------|--------------------------------|
E|--------------------------|--------------------------------|

E|--12b14-14-14-14-14-14-14-14-14-14-14-14-14-14-14r12-10-----|
B|--------------------------------------------------------12--|
G|------------------------------------------------------------|
D|------------------------------------------------------------|
A|------------------------------------------------------------|
E|------------------------------------------------------------|

             Bm                     F#m
Morena tropicana, eu quero o teu sabor
Em  F#7     Bm
oi, oi, oi, oi
             Bm                     F#m
Morena tropicana, eu quero o teu sabor
Em  F#7     Bm
oi, oi, oi, oi

Bm                                F#m
 Da manga rosa quero o gosto e o sumo
         Em        F#7  Bm
Melão maduro, sapoti, juá
                         F#m
Jaboticaba, teu olhar noturno
          Em        F#7  Bm
Beijo travoso de umbú cajá
        A     G          D
Pele macia é carne de caju
        A          G              D
Saliva doce, doce mel, mel de uruçú

       C#m7(b5)      F#7         Bm
Linda morena, fruta de vez temporana
       Bm/F#     C#m7(b5) F#7          Bm
Caldo de cana caiana,    vou te desfrutar
       C#m7(b5)      F#7         Bm
Linda morena, fruta de vez temporana
       Bm/F#     C#m7(b5) F#7          Bm
Caldo de cana caiana,    vou te desfrutar

             Bm                     F#m
Morena tropicana, eu quero o teu sabor
Em  F#7     Bm
oi, oi, oi, oi
             Bm                     F#m
Morena tropicana, eu quero o teu sabor
Em  F#7     Bm
oi, oi, oi, oi
             Bm                     F#m
Morena tropicana, eu quero o teu sabor
Em  F#7     Bm
oi, oi, oi, oi
             Bm                     F#m
Morena tropicana, eu quero o teu sabor
Em  F#7     Bm
oi, oi, oi, oi
Acordes para:

    0 comentários

      mostrar mais comentários

      Conseguiu tocar?

      40tocaram8ainda não

      Grave um vídeo tocando Morena Tropicana e mande pra gente!

      00:00 / 00:00
      outros vídeos desta música
      repetirqualidadeAutomático
      Outro vídeos desta música
        00:00 / 00:00
        OK