Cifra Club

Aprenda

Knockin' On Heaven's Door

Alef Ramos

Cifra: Principal (violão e guitarra)
Já pensou em usar uma coleção de roupas do Cifra Club? Responda as perguntas abaixo e nos ajude nessa missão! →
tom: G
(Intro)

   G         D               C                                    (2x)
E|-3-3-------------2-0---------------3--------------3----------|
B|-3---3---3-----3-----3---3-----1----1---1-----1-----1---1----|
G|-0-----0-----2---------2-----0---0----0-----0---0-----0------|
D|-0---------0-------------------------------------------------|
A|-2-------------------------3--------------3------------------|
E|-3-----------------------------------------------------------|

G        D                    C
  Mama, take this badge from me
E|-5b7r5-3-----3-|
B|---------5-3---|
G|---------------|
D|---------------|
A|---------------|
E|---------------|

G         D          C
  I can't use it anymore
E|--------------|
B|--------------|
G|-2-2-0--------|
D|-------2--2/5-|
A|--------------|
E|--------------|

G                   D              C
  It's getting dark  too dark to see
E|---------------------|
B|---------------------|
G|-2/4-2-0-------------|
D|---------2-2/5-7p5---|
A|---------------------|
E|---------------------|

G                  D                   C
  Feels like I'm knockin' on heaven's door
E|-12p10-7/5/3--|
B|--------------|
G|--------------|
D|--------------|
A|--------------|
E|--------------|

G             D                     C
Knock, knock, knockin' on heaven's door
E|-5-5-3---3--5-5-3---3-|
B|-------5----------5---|
G|----------------------|
D|----------------------|
A|----------------------|
E|----------------------|

G             D                     C
Knock, knock, knockin' on heaven's door
E|-5-5-3---3--5-5-3---3-|
B|-------5----------5---|
G|----------------------|
D|----------------------|
A|----------------------|
E|----------------------|

G             D                     C
knock, knock, knockin' on heaven's door
E|-5-5-3---3--5-5-3---3-|
B|-------5----------5---|
G|----------------------|
D|----------------------|
A|----------------------|
E|----------------------|

G             D                     C
Knock, knock, knockin' on heaven's door hey hey yeah
E|-5-5-3---3--5-5-3---3-|
B|-------5----------5---|
G|----------------------|
D|----------------------|
A|----------------------|
E|----------------------|

(base do primeiro solo) G D  C

(solo 1)

(parte 1)

E|----------------------------------------------------|
B|-------------------15-------------------------------|
G|-12-14b16r14p12-14----14b16r14p12-12~---------------|
D|----------------------------------------------------|
A|----------------------------------------------------|
E|----------------------------------------------------|

E|--------------------|
B|----------15/17-15--|
G|-------12-----------|
D|-12/14--------------|
A|--------------------|
E|--------------------|

(parte 2)

E|---------------------------------15-------------15--|
B|-13p12-13b15-13p12-13p12---12-13----13-12-15/17-----|
G|-------------------------14-------------------------|
D|----------------------------------------------------|
A|----------------------------------------------------|
E|----------------------------------------------------|

E|-17b19-17-17b19-17b19-15~---------------------------|
B|----------------------------------------------------|
G|----------------------------------------------------|
D|----------------------------------------------------|
A|----------------------------------------------------|
E|----------------------------------------------------|

(parte 3)

E|-20b22-20p19-20-19-20b22-20p19-20-20----------------|
B|-------------------------------------17-------------|
G|----------------------------------------------------|
D|----------------------------------------------------|
A|----------------------------------------------------|
E|----------------------------------------------------|

E|----------------------------------15----------------|
B|-15b17r15b17r15-------------------------------------|
G|----------------14b16r14b16r14p12-------------------|
D|----------------------------------------------------|
A|----------------------------------------------------|
E|----------------------------------------------------|

G         D                  C
Mama, put my guns in the ground
E|-5b7r5-3-----3-|
B|---------5-3---|
G|---------------|
D|---------------|
A|---------------|
E|---------------|

G       D                C
I can't shoot them anymore
E|--------------|
B|--------------|
G|-2-2-0--------|
D|-------2--2/5-|
A|--------------|
E|--------------|

G               D                 C
That cold black cloud is comin' down
E|---------------------|
B|---------------------|
G|-2/4-2-0-------------|
D|---------2-2/5-7p5---|
A|---------------------|
E|---------------------|

G              D                       C
Feels like I'm knockin' on heaven's door
E|-12p10-7/5/3--|
B|--------------|
G|--------------|
D|--------------|
A|--------------|
E|--------------|

G             D                     C
Knock, knock, knockin' on heaven's door
E|-5-5-3---3--5-5-3---3-|
B|-------5----------5---|
G|----------------------|
D|----------------------|
A|----------------------|
E|----------------------|

G             D                     C
Knock, knock, knockin' on heaven's door
E|-5-5-3---3--5-5-3---3-|
B|-------5----------5---|
G|----------------------|
D|----------------------|
A|----------------------|
E|----------------------|

G             D                     C
knock, knock, knockin' on heaven's door
E|-5-5-3---3--5-5-3---3-|
B|-------5----------5---|
G|----------------------|
D|----------------------|
A|----------------------|
E|----------------------|

G             D                     C
Knock, knock, knockin' on heaven's door hey hey yeah
E|-5-5-3---3--5-5-3---3-|
B|-------5----------5---|
G|----------------------|
D|----------------------|
A|----------------------|
E|----------------------|

Solo

E|------------------------------|
B|-13b15~--13b15r13--11b12------|
G|-------------------------10b--|x2
D|------------------------------|
A|------------------------------|
E|------------------------------|

E|--------------------------------------------------|
B|-15b17--15b17--15~----15b17x--15-15b17-15b17-15~--|
G|--------------------------------------------------|
D|--------------------------------------------------|
A|--------------------------------------------------|
E|--------------------------------------------------|

E|---------------|
B|-6-6b8r6b8-6~~-|
G|---------------|
D|---------------|
A|---------------|
E|---------------|

   Gx         Dx         Cx
E|-3-3x-3-3x--2-2x-2-2x--0-0x-0-0x-0-0x-0-0x--|
B|-3-3x-3-3x--3-3x-3-3x--1-1x-1-1x-1-1x-1-1x--|
G|-0-0x-0-0x--2-2x-2-2x--0-0x-0-0x-0-0x-0-0x--|2x
D|-0-0x-0-0x--0-0x-0-0x--2-2x-2-2x-2-2x-2-2x--|
A|-2-2x-2-2x-------------3-3x-3-3x-3-3x-3-3x--|
E|-3-3x-3-3x----------------------------------|


Gx             Dx                  Cx
 Knock-knock-knockin' on heaven's door
Gx             Dx                  Cx
 Knock-knock-knockin' on heaven's door

G              D                   C
 Knock-knock-knockin' on heaven's door
G              D                   C
 Knock-knock-knockin' on heaven's door
G              D                   C
 Knock-knock-knockin' on heaven's door
G              D                   C         G
 Knock-knock-knockin' on heaven's door
Compositor não encontrado.
Colaboração e revisão:
  • Alef Ramos
42 exibições
    • ½ Tom
    • A
    • Bb
    • B
    • C
    • Db
    • D
    • Eb
    • E
    • F
    • F#
    • G
    • Ab
  • Adicionar à lista

    0 comentários

    Ver todos os comentários

    Conseguiu tocar?

    2 Tocaram 0 Ainda não

    Grave um vídeo tocando Knockin' On Heaven's Door e nos envie!

    00:00 / 00:00
    Outros vídeos desta música
    Repetir Qualidade Automático
    Outros vídeos desta música
    00:00 / 00:00
    Automático

    Cifra Club Pro

    Aproveite o Cifra Club com benefícios exclusivos e sem anúncios
    Cifra Club Pro
    Aproveite o Cifra Club com benefícios exclusivos e sem anúncios
    OK