Cifra Club

Aleluia (Quem Muito Foi Perdoado)

Alessandro Vilas Boas

Cifra: Principal (violão e guitarra)
tom: C
[Intro] F7M  G5  C

( Riff1 )

    F7M              G5      C
E|-----12\15\12--------------------|
B|----------------13--12\5--5------|
G|---------------------------------|
D|--14-----------------------------|
A|---------------------------------|
E|---------------------------------|

    F7M              G5      C
E|-----12\15\12--------------------|
B|----------------13--12\3--3\5----|
G|---------------------------------|
D|--14-----------------------------|
A|---------------------------------|
E|---------------------------------|

F7M        G5   C
O grande amor de Deus
F7M        G5   Am7(9) 
O rei que me formou
F7M        G5   C 
Das trevas me tirou


E|----------------|
B|-10-10---6--5---|
G|----------------|
D|----------------|
A|-8--8-----5--3--|
E|----------------|

F7M       G5  C
A água que sacia
F7M        G5   Am7(9)      
O pão que vem do céu
F7M       G5   C
Jesus mudou minha vida

Cantarei

E|----------------|
B|-10-10---6--5---|
G|----------------|
D|----------------|
A|-8--8-----5--3--|
E|----------------|

Am   G/B   C
Ale, aleluia
Am   G/B   C
Ale, aleluia
F7M
Eu fui perdoado
G5
Amado por Jesus
F7M
Eu fui perdoado
G5
Amado por Jesus

( F7M  G5  C )

F7M       G5  C
A água que sacia
F7M        G5   Am7(9)      
O pão que vem do céu
F7M       G5   C
Jesus mudou minha vida

Cantarei

E|----------------|
B|-10-10---6--5---|
G|----------------|
D|----------------|
A|-8--8-----5--3--|
E|----------------|

Am  G/B   C
Ale, aleluia
Am  G/B   C
Ale, aleluia
F/C
Eu fui perdoado
G5
Amado por Jesus
F/C             G5
Eu fui perdoado

Am  G/B   C
Ale, aleluia
Am  G/B   C
Ale, aleluia
F/C
Eu fui perdoado
G5
Amado por Jesus
F/C
Eu fui perdoado
G5
Amado por Jesus

F/C                      G5
Quem muito foi perdoado, muito ama
F/C                      G5
Quem muito foi perdoado, muito ama
Am              C
E eu, eu te amo, meu rei e salvador
Am        G5
Eu te amo

F/C                      G5
Quem muito foi perdoado, muito ama
F/C                      G5
Quem muito foi perdoado, muito ama
Am              C
E eu, eu te amo, meu rei e salvador
Am        G5
Eu te amo

Am                      Em
Os seus olhos são como pedras preciosas
              F/C
Olhando pra mim

Am                     Em
E nós queremos ver, os seus olhos
                F/C  
Como chamas de fogo
00:00 / 00:00
Outros vídeos desta música
Repetir
Outros vídeos desta música
Composição de Alessandro Vilas Boas
57.778 exibições
    • ½ Tom
    • A
    • Bb
    • B
    • C
    • Db
    • D
    • Eb
    • E
    • F
    • F#
    • G
    • Ab
  • Adicionar à lista

    0 comentários

    Ver todos os comentários

    Conseguiu tocar?

    12 Tocaram 1 Ainda não

    Grave um vídeo tocando Aleluia (Quem Muito Foi Perdoado) e nos envie!

    Entre para oCifra Club PRO

    Tenha acesso a benefícios exclusivos no App e no Site

    • Chega de anúncios

    • Prioridade de compra em lançamentos

    • Mais recursos no app do Afinador

    • Atendimento Prioritário

    • Descontos nos produtos Cifra Club

    • Ajude a produzir mais conteúdo

    00:00 / 00:00

    Cifra Club Pro

    Aproveite o Cifra Club com benefícios exclusivos e sem anúncios
    Cifra Club Pro
    Aproveite o Cifra Club com benefícios exclusivos e sem anúncios
    OK