Cifra Club

Aprenda

O Carpinteiro

Alessandro Vilas Boas

Cifra: Principal (violão e guitarra)
Já pensou em usar uma coleção de roupas do Cifra Club? Responda as perguntas abaixo e nos ajude nessa missão! →
tom: C#m
[Intro] C#m  B4  A
        C#m  B4  A  A9

   C#m  B4   A           
E|------------------------------------------|
B|---5--4----2-2-4-4/5----2----12-----------|
G|-----------2------------2-----------------|
D|-----------2------------2-----------------|
A|-4----2-----------------2-----------------|
E|------------------------------------------|

   C#m  B4   A            A9 
E|------------------------------------------|
B|---5----4--2-2-4-5p4p2--------------------|
G|-----------2------------2-----------------|
D|-----------2------------2-----------------|
A|-4----2----0------------0-----------------|
E|------------------------------------------|

[Primeira Parte]

               C#m               B4
Esconda-me em ti, esconda-me em ti
                  A9
Nas asas do teu amor
               C#m               B4
Esconda-me em ti, esconda-me em ti
                  A9
Nas asas do teu amor

               C#m               B4
Esconda-me em ti, esconda-me em ti
                  A9
Nas asas do teu amor
               C#m               B4
Esconda-me em ti, esconda-me em ti
                  A9
Nas asas do teu amor

[Segunda Parte]

C#m                      B4
    Como eu amo seu nome,   tens o nome mais lindo que eu conheço
A9
   Como eu amo seu nome 
C#m                      B4                                   A9
    Como eu amo seu nome,   tens o nome mais lindo que eu conheço

[Primeira Parte]

               C#m               B4
Esconda-me em ti, esconda-me em ti
                  A9
Nas asas do teu amor
               C#m               B4
Esconda-me em ti, esconda-me em ti
                  A9
Nas asas do teu amor

[Segunda Parte]
 
C#m                      B4
    Como eu amo seu nome,   tens o nome mais lindo que eu conheço
A9
   Como eu amo seu nome 
C#m                      B4
    Como eu amo seu nome,   tens o nome mais lindo que eu conheço
A9
   Como eu amo seu nome 

[Ponte]

   C#m  C#m    B    A9    A9
E|------------------------------------------|
B|------------------------------14----------|
G|-6-6--6-6----4----2-2---2-2---16b18-------|
D|-6-6--6-6----4----2-2---2-2---------13~---|
A|-4-4--4-4----2----0-0---0-0---------------|
E|------------------------------------------|

  C#m
Qual é o som, qual é o som
        B4
Quando Deus desce na terra?
  A9
Qual é o som, qual é o som?

  C#m
Qual é o som, qual é o som
        B4
Quando Deus desce na terra?
  A9
Qual é o som, qual é o som?

(Notas oitavadas)
E|------------------------------------------|
B|------------------------------------------|
G|-6-----8----9-------14--13----------------|
D|------------------------------------------|
A|-4-----6----7-------12--11----------------|
E|------------------------------------------|
(Depois que faz essa parte, volta para os power acordes de C#m B A9)
  C#m
Qual é o som, qual é o som
        B4
Quando Deus desce na terra?
  A9
Qual é o som, qual é o som? 

[Refrão]

E|-9-----9-----11-----11-----12-----12-------|
B|-12b14-12b14-14b16--14b16--15b17--15b17----|
G|-------------------------------------------|
D|-------------------------------------------|
A|-------------------------------------------|
E|-------------------------------------------|

E|-14----14----------------------------------|
B|-15b19-15b19-------------------------------|
G|-------------------------------------------|
D|-------------------------------------------|
A|-------------------------------------------|
E|-------------------------------------------|

            C#m
E esse é o som
                         B4
O carpinteiro batendo a porta
                         A9
O carpinteiro batendo a porta

            C#m
E esse é o som
                             B4
Do lado de dentro eu abro a porta
                             A9
Do lado de dentro eu abro a porta 

             C#m
E este é meu som
                             B4
Do lado de dentro eu abro a porta
                             A9
Do lado de dentro eu abro a porta 

             C#m
E este é meu som
                             B4
Do lado de dentro eu abro a porta
                             A9
Do lado de dentro eu abro a porta 

( C#m  B4  A9 )
( C#m  B4  A9 )

[Refrão]

C#m                          B4
    O carpinteiro batendo a porta
                         A9
O carpinteiro batendo a porta

            C#m
E esse é o som
                           B4
O carpinteiro arrumando a casa
                           A9
O carpinteiro arrumando a casa
  
[Segunda Parte]

E|--9----11----12------14--------------------|
B|-------------------------------------------|
G|-------------------------------------------| (2x)
D|-------------------------------------------|
A|-------------------------------------------|
E|-------------------------------------------|
 
C#m                      B4
    Como eu amo seu nome,   tens o nome mais lindo que eu conheço
A9
   Como eu amo seu nome 
C#m                      B4
    Como eu amo seu nome,   tens o nome mais lindo que eu conheço
A9
   Como eu amo seu nome 

( C#m  B4  A9 )

[Segunda Parte]
 
C#m                      B4
    Como eu amo seu nome,   tens o nome mais lindo que eu conheço
A9
   Como eu amo seu nome 
C#m                      B4
    Como eu amo seu nome,   tens o nome mais lindo que eu conheço
A9
   Como eu amo seu nome 

[Ponte]
                
  C#m
Qual é o som, qual é o som
        B4
Quando Deus desce na terra?
  A9
Qual é o som, qual é o som?

  C#m
Qual é o som, qual é o som
        B4
Quando Deus desce na terra?
  A9
Qual é o som, qual é o som?

  C#m
Qual é o som, qual é o som
        B4
Quando Deus desce na terra?
  A9
Qual é o som, qual é o som? 

[Refrão]

            C#m
E esse é o som
                         B4
O carpinteiro batendo a porta
                         A9
O carpinteiro batendo a porta

            C#m
E esse é o som
                         B4
O carpinteiro batendo a porta
                         A9
O carpinteiro batendo a porta

[Final] C#m  B4  A9
        C#m  B4  A9
        C#m  B4  A9
        C#m  B4  A9  C#m
[Solo final]

E|-------------------------------------------|
B|-7b9--b9-b9---7~--12b14--b14-b14---12~-----|
G|-------------------------------------------|
D|-------------------------------------------|
A|-------------------------------------------|
E|-------------------------------------------|

E|-------------------------------------------|
B|-7b9--b9-b9---7~--14b16--b16--b16----------|
G|-------------------------------------------|
D|-------------------------------------------|
A|-------------------------------------------|
E|-------------------------------------------|

E|-------------------------------------------|
B|-------------------------------------------|
G|-6-----8----9------------------------------|
D|-------------------------------------------|
A|-4-----6----7------------------------------|
E|-------------------------------------------|
Composição de Alessandro Vilas Boas
550.159 exibições
  • Simplificar cifra
    • ½ Tom
    • Am
    • Bbm
    • Bm
    • Cm
    • C#m
    • Dm
    • Ebm
    • Em
    • Fm
    • F#m
    • Gm
    • G#m
  • Adicionar à lista

    0 comentários

    Ver todos os comentários

    Conseguiu tocar?

    91 Tocaram 63 Ainda não

    Grave um vídeo tocando O Carpinteiro e nos envie!

    00:00 / 00:00
    Outros vídeos desta música
    Repetir Qualidade Automático
    Outros vídeos desta música
    00:00 / 00:00
    Automático

    Cifra Club Pro

    Aproveite o Cifra Club com benefícios exclusivos e sem anúncios
    Cifra Club Pro
    Aproveite o Cifra Club com benefícios exclusivos e sem anúncios
    OK