All For You

Alex & Sierra

tom: D
E|----------------------------------------------------|---------------------------------|
B|----7-----7------2-----2------3----3-----2----2-----|----7-----7------2-----2------3--|
G|----7-----7------2-----2------4----4-----2----2-----|----7-----7------2-----2------4--|  (2x)
D|----7-----7------2-----2------5----5-----2----2-----|----7-----7------2-----2------5--|
A|----------------------------------------------------|---------------------------------|
E|--7-----7------2-----2------3----3-----2-----2------|--7-----7------2-----2------3----|
Here I go
...another night of fun by myself losing all control

You won't believe it I've thinking 
I wanna rob a bank
, get you everything you could ever need

Steal a plane, fly away wherever you want


G                           F#m
 You'll never know when to stop

         Bm
It's the way you keep me twisted

    A
It's just how I like it to be

G                       F#m
 You never know in the skies

          Bm                         A
So if you wake up and see me on the news
  A7

I did it all...
E|----------------------------------------------------|----------------------------------------|
B|----7-----7------2-----2------3----3-----2----2-----|----7-----7------2-----2----3--3--2--2--|
G|----7-----7------2-----2------4----4-----2----2-----|----7-----7------2-----2----4--4--4--2--| 
D|----7-----7------2-----2------5----5-----2----2-----|----7-----7------2-----2----5--5--5--2--|
A|----------------------------------------------------|----------------------------------------|
E|--7-----7------2-----2------3----3-----2-----2------|--7-----7------2-----2------3--3--3--2--|
...for you

I did it all for you


E|----------------------------------------------------|---------------------------------|
B|----7-----7------2-----2------3----3-----2----2-----|----7-----7------2-----2------3--|
G|----7-----7------2-----2------4----4-----2----2-----|----7-----7------2-----2------4--|  (2 vezes)
D|----7-----7------2-----2------5----5-----2----2-----|----7-----7------2-----2------5--|
A|----------------------------------------------------|---------------------------------|
E|--7-----7------2-----2------3----3-----2-----2------|--7-----7------2-----2------3----|
There you go...you love to cause trouble, I don't think it all just how it goe
s
I've been to doing the same

Steal your favorite car, driving every mile till we pop the charge

No jail bars are ever keeping us apart

G                           F#m
 You'll never know when to stop

         Bm
It's the way you keep me twisted

    A
It's just how I like it to be

G                       F#m
 You never know in the skies

          Bm                         A
So if you wake up and see me on the news
  A7

I did it all...
E|----------------------------------------------------|----------------------------------------|
B|----7-----7------2-----2------3----3-----2----2-----|----7-----7------2-----2----3--3--2--2--|
G|----7-----7------2-----2------4----4-----2----2-----|----7-----7------2-----2----4--4--4--2--| 
D|----7-----7------2-----2------5----5-----2----2-----|----7-----7------2-----2----5--5--5--2--|
A|----------------------------------------------------|----------------------------------------|
E|--7-----7------2-----2------3----3-----2-----2------|--7-----7------2-----2------3--3--3--2--|
...for you

I did it all for you


Abafado:
Bm
They're coming to get us
Bb
So we better run
A/D                  Bb
Or we're gonna pay for the things that we've done
Bm
Coming to get us
Bb
So we better run
A/D Bb

Bm
They're coming to get us
Bb
So we better run
A/D                  Bb
Or we're gonna pay for the things that we've done
Bm
Coming to get us
Bb
So we better run
A/D Bb


Bm Bb A/D Bb  (continua até acabar)

I did it all for you
I did it all for you
I did it all for you
I did it all for you
For you, for you, for you

I did it all for you
I did it all for you
Página 1 / 1

Letras e título
Acordes e artista

resetar configurações
OK