Enviar cifraEntrar

Meu Grande Heroi

Alexandre Bernardino

Cifra: Principal
exibições 64.474
Tom: G
(intro) G D Am Em Cm F G

(solo)

E|---------------------------------------------------------------------------------
B|---------------------------------------------------------5-----------------------
G|--------4---7-5-4-4-------------4-5--7-5-4-----4-----------7-5-4-----------------
D|----5-7----------------7-7---7--------------7--------4-5---------7-5-7---4~------
A|--5------------------------7-----------------------7------------------------7-5--
E|---------------------------------------------------------------------------------


 G            D          C       Em            D
Ferido lá no chão estava eu, esperando alguém vir me
      G         C          G      F     Em
socorrer, quem por mim passou não me ajudou mesmo
  D#        F           G  (C C/D)
vendo eu a ponto de morrer.
      G            D               C         Em          D
Me disseram que enquanto eu estava lá, um viajante de bondoso
     G      C       G        F       Em         D#
coração me vendo caído sobre aquele chão, se encheu de uma
    F           G   D
profunda compaixão,

     G                D
e olhou e chorou com amor me falou: "vai
   Em       C         G     D        G
ficar tudo bem, olha só o pior já passou"
                  D                   Em
me pos em seus braços curou minhas feridas, das garras da
  C       D        G                 D             Em
morte ele me arranco, sua voz tão suave eu posso ouvir
              C        D      G                 D
dizendo que ainda não era o fim,  salvou minha vida e
     C       D           G
se fooooi, o meu grande herói..

 D           G         G/B           C                  D
Meu grande heroi não tinha cavalo branco, armadura reluzente
       C            G
nem espada e nem escudo,
D            G          Em           D
meu grande herói era humilde eu bem sei,
                    Am          D          G
mas no céu ele era rei,dono exclusivo de tudo
 D            G         G/B
meu grande herói mudou mesmo
          C                              D          C
a minha sorte, me arrancou das mãos da morte, e nem vi
          G    D            G        Em         D
o rosto dele, meu grande herói meu amigo mais fiel, me
                  C           D               G
salvou e foi pro céu, Jesus Cristo é o nome dele..

(solo)

E|----------------------------------------------
B|----------------------------------------------
G|-------4-7-4---4-5-4---7-7------7~--7~--5-7---
D|---------------------7-------5----------------
A|--5-7-----------------------------------------
E|----------------------------------------------

(solo) G D C (C G)
  • 1
  • 2
  • 3
  • 4
  • 5
  • 6
  • 7
  • 8
  • 9
  • 10
  • 11
  • 12
    Acordes para:
      Composição: Agailton SilvaColaboração e revisão:

      0 comentários

        mostrar mais comentários

        Conseguiu tocar?

        1tocaram0ainda não

        Grave um vídeo tocando Meu Grande Heroi e mande pra gente!

        00:00 / 00:00
        outros vídeos desta música
        repetirqualidadeautomática
        • automática
        Outro vídeos desta música
          00:00 / 00:00
          automática
          • automática
          Acordes para:violão e guitarra
          dificuldadeexibiçõescontribuições
          fecharplay/pause subir/descer velocidade
            acordes
            fechar
            OK
            Feedback